ISO-10303-21;
HEADER;
FILE_DESCRIPTION (( 'STEP AP203' ),
    '1' );
FILE_NAME ('bj300-08040.STEP',
    '2021-10-24T23:50:56',
    ( '' ),
    ( '' ),
    'SwSTEP 2.0',
    'SolidWorks 2020',
    '' );
FILE_SCHEMA (( 'CONFIG_CONTROL_DESIGN' ));
ENDSEC;

DATA;
#1 = DIRECTION ( 'NONE',  ( 0.000000000000000000, 0.000000000000000000, 1.000000000000000000 ) ) ;
#2 = ORIENTED_EDGE ( 'NONE', *, *, #204, .F. ) ;
#3 = MECHANICAL_CONTEXT ( 'NONE', #22, 'mechanical' ) ;
#4 = CARTESIAN_POINT ( 'NONE',  ( -4.500000000000000000, 5.510910596163088569E-16, 0.000000000000000000 ) ) ;
#5 = AXIS2_PLACEMENT_3D ( 'NONE', #162, #49, #327 ) ;
#6 = EDGE_LOOP ( 'NONE', ( #237, #135, #134, #51 ) ) ;
#7 = PERSON_AND_ORGANIZATION ( #45, #86 ) ;
#8 = VERTEX_POINT ( 'NONE', #313 ) ;
#9 = EDGE_LOOP ( 'NONE', ( #211, #289 ) ) ;
#10 = CC_DESIGN_PERSON_AND_ORGANIZATION_ASSIGNMENT ( #219, #38, ( #21 ) ) ;
#11 = ORIENTED_EDGE ( 'NONE', *, *, #243, .F. ) ;
#12 = DIRECTION ( 'NONE',  ( 0.000000000000000000, 0.000000000000000000, 1.000000000000000000 ) ) ;
#13 = AXIS2_PLACEMENT_3D ( 'NONE', #318, #293, #122 ) ;
#14 = DIRECTION ( 'NONE',  ( 0.000000000000000000, 0.000000000000000000, 1.000000000000000000 ) ) ;
#15 = CARTESIAN_POINT ( 'NONE',  ( -7.000000000000000000, 8.572527594031473190E-16, 40.00000000000000000 ) ) ;
#16 = ADVANCED_FACE ( 'NONE', ( #87 ), #197, .T. ) ;
#17 = DIRECTION ( 'NONE',  ( 0.000000000000000000, 0.000000000000000000, 1.000000000000000000 ) ) ;
#18 = CARTESIAN_POINT ( 'NONE',  ( 7.000000000000000000, 0.000000000000000000, 7.000000000000000000 ) ) ;
#19 = ORIENTED_EDGE ( 'NONE', *, *, #266, .F. ) ;
#20 = AXIS2_PLACEMENT_3D ( 'NONE', #102, #23, #206 ) ;
#21 = PRODUCT_DEFINITION_FORMATION_WITH_SPECIFIED_SOURCE ( 'ANY', '', #227, .NOT_KNOWN. ) ;
#22 = APPLICATION_CONTEXT ( 'configuration controlled 3d designs of mechanical parts and assemblies' ) ;
#23 = DIRECTION ( 'NONE',  ( 0.000000000000000000, 0.000000000000000000, 1.000000000000000000 ) ) ;
#24 = EDGE_LOOP ( 'NONE', ( #80, #144, #229, #264 ) ) ;
#25 = ORIENTED_EDGE ( 'NONE', *, *, #137, .F. ) ;
#26 = DIRECTION ( 'NONE',  ( 1.000000000000000000, 0.000000000000000000, 0.000000000000000000 ) ) ;
#27 = VERTEX_POINT ( 'NONE', #4 ) ;
#28 = APPROVAL_PERSON_ORGANIZATION ( #267, #76, #62 ) ;
#29 = COORDINATED_UNIVERSAL_TIME_OFFSET ( 9, 0, .AHEAD. ) ;
#30 = EDGE_CURVE ( 'NONE', #8, #109, #193, .T. ) ;
#31 = VERTEX_POINT ( 'NONE', #59 ) ;
#32 = PERSON_AND_ORGANIZATION_ROLE ( 'creator' ) ;
#33 = ORIENTED_EDGE ( 'NONE', *, *, #290, .F. ) ;
#34 = CIRCLE ( 'NONE', #201, 12.50000000000000000 ) ;
#35 = ADVANCED_FACE ( 'NONE', ( #214 ), #84, .F. ) ;
#36 = DATE_TIME_ROLE ( 'creation_date' ) ;
#37 = ORIENTED_EDGE ( 'NONE', *, *, #301, .T. ) ;
#38 = PERSON_AND_ORGANIZATION_ROLE ( 'design_supplier' ) ;
#39 = CIRCLE ( 'NONE', #118, 12.50000000000000000 ) ;
#40 = DIRECTION ( 'NONE',  ( 0.000000000000000000, 0.000000000000000000, -1.000000000000000000 ) ) ;
#41 = CC_DESIGN_DATE_AND_TIME_ASSIGNMENT ( #268, #36, ( #189 ) ) ;
#42 = FACE_BOUND ( 'NONE', #9, .T. ) ;
#43 = COORDINATED_UNIVERSAL_TIME_OFFSET ( 9, 0, .AHEAD. ) ;
#44 = FACE_OUTER_BOUND ( 'NONE', #209, .T. ) ;
#45 = PERSON ( 'UNSPECIFIED', 'UNSPECIFIED', 'UNSPECIFIED', ('UNSPECIFIED'), ('UNSPECIFIED'), ('UNSPECIFIED') ) ;
#46 = APPROVAL ( #316, 'UNSPECIFIED' ) ;
#47 = DIRECTION ( 'NONE',  ( 0.000000000000000000, 0.000000000000000000, 1.000000000000000000 ) ) ;
#48 = ADVANCED_BREP_SHAPE_REPRESENTATION ( 'bj300-08040', ( #308, #196 ), #152 ) ;
#49 = DIRECTION ( 'NONE',  ( 0.000000000000000000, 0.000000000000000000, 1.000000000000000000 ) ) ;
#50 = VECTOR ( 'NONE', #133, 1000.000000000000000 ) ;
#51 = ORIENTED_EDGE ( 'NONE', *, *, #168, .F. ) ;
#52 = SECURITY_CLASSIFICATION ( '', '', #321 ) ;
#53 = EDGE_LOOP ( 'NONE', ( #329, #231 ) ) ;
#54 = DIRECTION ( 'NONE',  ( 1.000000000000000000, 0.000000000000000000, 0.000000000000000000 ) ) ;
#55 = CARTESIAN_POINT ( 'NONE',  ( 12.50000000000000000, 0.000000000000000000, 40.00000000000000000 ) ) ;
#56 = EDGE_CURVE ( 'NONE', #188, #27, #302, .T. ) ;
#57 = LOCAL_TIME ( 8, 50, 56.00000000000000000, #29 ) ;
#58 = ORIENTED_EDGE ( 'NONE', *, *, #137, .T. ) ;
#59 = CARTESIAN_POINT ( 'NONE',  ( -7.000000000000000000, 8.572527594031473190E-16, 7.000000000000000000 ) ) ;
#60 = CIRCLE ( 'NONE', #249, 4.500000000000000000 ) ;
#61 = APPROVAL_STATUS ( 'not_yet_approved' ) ;
#62 = APPROVAL_ROLE ( '' ) ;
#63 = DIRECTION ( 'NONE',  ( 0.000000000000000000, 0.000000000000000000, 1.000000000000000000 ) ) ;
#64 = FACE_OUTER_BOUND ( 'NONE', #265, .T. ) ;
#65 = APPROVAL_ROLE ( '' ) ;
#66 = VECTOR ( 'NONE', #63, 1000.000000000000000 ) ;
#67 = FACE_BOUND ( 'NONE', #163, .T. ) ;
#68 = CALENDAR_DATE ( 2021, 25, 10 ) ;
#69 = CARTESIAN_POINT ( 'NONE',  ( 7.000000000000000000, 0.000000000000000000, 7.000000000000000000 ) ) ;
#70 = VECTOR ( 'NONE', #298, 1000.000000000000000 ) ;
#71 = DIRECTION ( 'NONE',  ( 0.000000000000000000, 0.000000000000000000, 1.000000000000000000 ) ) ;
#72 = LOCAL_TIME ( 8, 50, 56.00000000000000000, #239 ) ;
#73 = DIRECTION ( 'NONE',  ( 1.000000000000000000, 0.000000000000000000, 0.000000000000000000 ) ) ;
#74 = ORIENTED_EDGE ( 'NONE', *, *, #171, .F. ) ;
#75 = FACE_OUTER_BOUND ( 'NONE', #117, .T. ) ;
#76 = APPROVAL ( #61, 'UNSPECIFIED' ) ;
#77 = CARTESIAN_POINT ( 'NONE',  ( 0.000000000000000000, 0.000000000000000000, 7.000000000000000000 ) ) ;
#78 = ORIENTED_EDGE ( 'NONE', *, *, #310, .F. ) ;
#79 = EDGE_CURVE ( 'NONE', #8, #170, #39, .T. ) ;
#80 = ORIENTED_EDGE ( 'NONE', *, *, #254, .F. ) ;
#81 = CARTESIAN_POINT ( 'NONE',  ( 0.000000000000000000, 0.000000000000000000, 0.000000000000000000 ) ) ;
#82 = CIRCLE ( 'NONE', #145, 4.500000000000000000 ) ;
#83 = APPROVAL_DATE_TIME ( #306, #76 ) ;
#84 = CYLINDRICAL_SURFACE ( 'NONE', #241, 7.000000000000000000 ) ;
#85 = DIRECTION ( 'NONE',  ( 1.000000000000000000, 0.000000000000000000, 0.000000000000000000 ) ) ;
#86 = ORGANIZATION ( 'UNSPECIFIED', 'UNSPECIFIED', '' ) ;
#87 = FACE_OUTER_BOUND ( 'NONE', #295, .T. ) ;
#88 = EDGE_CURVE ( 'NONE', #167, #160, #224, .T. ) ;
#89 = PERSON_AND_ORGANIZATION ( #45, #86 ) ;
#90 = DIRECTION ( 'NONE',  ( 0.000000000000000000, 0.000000000000000000, 1.000000000000000000 ) ) ;
#91 = CARTESIAN_POINT ( 'NONE',  ( 4.500000000000000000, 0.000000000000000000, 0.000000000000000000 ) ) ;
#92 = AXIS2_PLACEMENT_3D ( 'NONE', #205, #47, #296 ) ;
#93 = DIRECTION ( 'NONE',  ( 0.000000000000000000, 0.000000000000000000, 1.000000000000000000 ) ) ;
#94 = ADVANCED_FACE ( 'NONE', ( #150, #42 ), #248, .F. ) ;
#95 = PERSON_AND_ORGANIZATION_ROLE ( 'classification_officer' ) ;
#96 = FACE_OUTER_BOUND ( 'NONE', #217, .T. ) ;
#97 = CC_DESIGN_PERSON_AND_ORGANIZATION_ASSIGNMENT ( #173, #95, ( #52 ) ) ;
#98 = CARTESIAN_POINT ( 'NONE',  ( -7.000000000000000000, 8.572527594031473190E-16, 40.00000000000000000 ) ) ;
#99 = AXIS2_PLACEMENT_3D ( 'NONE', #176, #14, #177 ) ;
#100 = FACE_OUTER_BOUND ( 'NONE', #24, .T. ) ;
#101 = CC_DESIGN_SECURITY_CLASSIFICATION ( #52, ( #21 ) ) ;
#102 = CARTESIAN_POINT ( 'NONE',  ( 0.000000000000000000, 0.000000000000000000, 7.000000000000000000 ) ) ;
#103 = CARTESIAN_POINT ( 'NONE',  ( 0.000000000000000000, 0.000000000000000000, 40.00000000000000000 ) ) ;
#104 = AXIS2_PLACEMENT_3D ( 'NONE', #77, #17, #183 ) ;
#105 = ORIENTED_EDGE ( 'NONE', *, *, #30, .T. ) ;
#106 = APPLICATION_CONTEXT ( 'configuration controlled 3d designs of mechanical parts and assemblies' ) ;
#107 = CARTESIAN_POINT ( 'NONE',  ( 0.000000000000000000, 0.000000000000000000, 40.00000000000000000 ) ) ;
#108 = APPLICATION_PROTOCOL_DEFINITION ( 'international standard', 'config_control_design', 1994, #22 ) ;
#109 = VERTEX_POINT ( 'NONE', #198 ) ;
#110 = CC_DESIGN_PERSON_AND_ORGANIZATION_ASSIGNMENT ( #111, #32, ( #189 ) ) ;
#111 = PERSON_AND_ORGANIZATION ( #45, #86 ) ;
#112 = VERTEX_POINT ( 'NONE', #125 ) ;
#113 = AXIS2_PLACEMENT_3D ( 'NONE', #252, #155, #126 ) ;
#114 = LOCAL_TIME ( 8, 50, 56.00000000000000000, #138 ) ;
#115 = CARTESIAN_POINT ( 'NONE',  ( 0.000000000000000000, 0.000000000000000000, 40.00000000000000000 ) ) ;
#116 = DIRECTION ( 'NONE',  ( 0.000000000000000000, 0.000000000000000000, 1.000000000000000000 ) ) ;
#117 = EDGE_LOOP ( 'NONE', ( #19, #58, #157, #78 ) ) ;
#118 = AXIS2_PLACEMENT_3D ( 'NONE', #169, #195, #277 ) ;
#119 = APPROVAL_DATE_TIME ( #323, #46 ) ;
#120 = CARTESIAN_POINT ( 'NONE',  ( 0.000000000000000000, 0.000000000000000000, 7.000000000000000000 ) ) ;
#121 = APPROVAL ( #223, 'UNSPECIFIED' ) ;
#122 = DIRECTION ( 'NONE',  ( 1.000000000000000000, 0.000000000000000000, 0.000000000000000000 ) ) ;
#123 = COORDINATED_UNIVERSAL_TIME_OFFSET ( 9, 0, .AHEAD. ) ;
#124 = DIRECTION ( 'NONE',  ( 1.000000000000000000, 0.000000000000000000, 0.000000000000000000 ) ) ;
#125 = CARTESIAN_POINT ( 'NONE',  ( 12.50000000000000000, 0.000000000000000000, 40.00000000000000000 ) ) ;
#126 = DIRECTION ( 'NONE',  ( 1.000000000000000000, 0.000000000000000000, 0.000000000000000000 ) ) ;
#127 = CYLINDRICAL_SURFACE ( 'NONE', #312, 4.500000000000000000 ) ;
#128 = VECTOR ( 'NONE', #1, 1000.000000000000000 ) ;
#129 = LINE ( 'NONE', #325, #50 ) ;
#130 = ORIENTED_EDGE ( 'NONE', *, *, #301, .F. ) ;
#131 = DIRECTION ( 'NONE',  ( 0.000000000000000000, 0.000000000000000000, 1.000000000000000000 ) ) ;
#132 = ORIENTED_EDGE ( 'NONE', *, *, #324, .F. ) ;
#133 = DIRECTION ( 'NONE',  ( 0.000000000000000000, 0.000000000000000000, 1.000000000000000000 ) ) ;
#134 = ORIENTED_EDGE ( 'NONE', *, *, #243, .T. ) ;
#135 = ORIENTED_EDGE ( 'NONE', *, *, #79, .T. ) ;
#136 = ORIENTED_EDGE ( 'NONE', *, *, #171, .T. ) ;
#137 = EDGE_CURVE ( 'NONE', #31, #167, #225, .T. ) ;
#138 = COORDINATED_UNIVERSAL_TIME_OFFSET ( 9, 0, .AHEAD. ) ;
#139 = CC_DESIGN_APPROVAL ( #46, ( #21 ) ) ;
#140 = ORIENTED_EDGE ( 'NONE', *, *, #181, .F. ) ;
#141 = CARTESIAN_POINT ( 'NONE',  ( 0.000000000000000000, 0.000000000000000000, 0.000000000000000000 ) ) ;
#142 = ADVANCED_FACE ( 'NONE', ( #182 ), #315, .T. ) ;
#143 = EDGE_LOOP ( 'NONE', ( #74, #236 ) ) ;
#144 = ORIENTED_EDGE ( 'NONE', *, *, #56, .F. ) ;
#145 = AXIS2_PLACEMENT_3D ( 'NONE', #120, #90, #245 ) ;
#146 = DATE_AND_TIME ( #314, #294 ) ;
#147 = DIRECTION ( 'NONE',  ( 1.000000000000000000, 0.000000000000000000, 0.000000000000000000 ) ) ;
#148 = PERSON_AND_ORGANIZATION ( #45, #86 ) ;
#149 = DIRECTION ( 'NONE',  ( 1.000000000000000000, 0.000000000000000000, 0.000000000000000000 ) ) ;
#150 = FACE_OUTER_BOUND ( 'NONE', #143, .T. ) ;
#151 = PRODUCT_DEFINITION_SHAPE ( 'NONE', 'NONE',  #189 ) ;
#152 =( GEOMETRIC_REPRESENTATION_CONTEXT ( 3 ) GLOBAL_UNCERTAINTY_ASSIGNED_CONTEXT ( ( #158 ) ) GLOBAL_UNIT_ASSIGNED_CONTEXT ( ( #230, #279, #185 ) ) REPRESENTATION_CONTEXT ( 'NONE', 'WORKASPACE' ) );
#153 = DATE_AND_TIME ( #271, #276 ) ;
#154 = APPROVAL_PERSON_ORGANIZATION ( #89, #121, #65 ) ;
#155 = DIRECTION ( 'NONE',  ( 0.000000000000000000, 0.000000000000000000, 1.000000000000000000 ) ) ;
#156 = ADVANCED_FACE ( 'NONE', ( #67, #96 ), #203, .F. ) ;
#157 = ORIENTED_EDGE ( 'NONE', *, *, #88, .T. ) ;
#158 = UNCERTAINTY_MEASURE_WITH_UNIT (LENGTH_MEASURE( 1.000000000000000082E-05 ), #230, 'distance_accuracy_value', 'NONE');
#159 = CIRCLE ( 'NONE', #180, 12.50000000000000000 ) ;
#160 = VERTEX_POINT ( 'NONE', #274 ) ;
#161 = ADVANCED_FACE ( 'NONE', ( #44 ), #273, .F. ) ;
#162 = CARTESIAN_POINT ( 'NONE',  ( 0.000000000000000000, 0.000000000000000000, 40.00000000000000000 ) ) ;
#163 = EDGE_LOOP ( 'NONE', ( #140, #132 ) ) ;
#164 = CARTESIAN_POINT ( 'NONE',  ( 4.500000000000000000, 0.000000000000000000, 40.00000000000000000 ) ) ;
#165 = AXIS2_PLACEMENT_3D ( 'NONE', #107, #328, #73 ) ;
#166 = ORIENTED_EDGE ( 'NONE', *, *, #234, .T. ) ;
#167 = VERTEX_POINT ( 'NONE', #98 ) ;
#168 = EDGE_CURVE ( 'NONE', #109, #112, #233, .T. ) ;
#169 = CARTESIAN_POINT ( 'NONE',  ( 0.000000000000000000, 0.000000000000000000, 0.000000000000000000 ) ) ;
#170 = VERTEX_POINT ( 'NONE', #253 ) ;
#171 = EDGE_CURVE ( 'NONE', #170, #8, #159, .T. ) ;
#172 = ORIENTED_EDGE ( 'NONE', *, *, #254, .T. ) ;
#173 = PERSON_AND_ORGANIZATION ( #45, #86 ) ;
#174 = PLANE ( 'NONE',  #263 ) ;
#175 = AXIS2_PLACEMENT_3D ( 'NONE', #259, #228, #54 ) ;
#176 = CARTESIAN_POINT ( 'NONE',  ( 0.000000000000000000, 0.000000000000000000, 40.00000000000000000 ) ) ;
#177 = DIRECTION ( 'NONE',  ( 1.000000000000000000, 0.000000000000000000, 0.000000000000000000 ) ) ;
#178 = DATE_TIME_ROLE ( 'classification_date' ) ;
#179 = DIRECTION ( 'NONE',  ( -1.000000000000000000, 0.000000000000000000, 0.000000000000000000 ) ) ;
#180 = AXIS2_PLACEMENT_3D ( 'NONE', #220, #71, #149 ) ;
#181 = EDGE_CURVE ( 'NONE', #216, #207, #82, .T. ) ;
#182 = FACE_OUTER_BOUND ( 'NONE', #6, .T. ) ;
#183 = DIRECTION ( 'NONE',  ( 1.000000000000000000, 0.000000000000000000, 0.000000000000000000 ) ) ;
#184 = CIRCLE ( 'NONE', #20, 7.000000000000000000 ) ;
#185 =( NAMED_UNIT ( * ) SI_UNIT ( $, .STERADIAN. ) SOLID_ANGLE_UNIT ( ) );
#186 = LINE ( 'NONE', #232, #128 ) ;
#187 = LINE ( 'NONE', #55, #70 ) ;
#188 = VERTEX_POINT ( 'NONE', #91 ) ;
#189 = PRODUCT_DEFINITION ( 'UNKNOWN', '', #21, #250 ) ;
#190 = DIRECTION ( 'NONE',  ( 0.000000000000000000, 0.000000000000000000, 1.000000000000000000 ) ) ;
#191 = PERSON_AND_ORGANIZATION_ROLE ( 'design_owner' ) ;
#192 = CC_DESIGN_DATE_AND_TIME_ASSIGNMENT ( #146, #178, ( #52 ) ) ;
#193 = LINE ( 'NONE', #307, #66 ) ;
#194 = CALENDAR_DATE ( 2021, 25, 10 ) ;
#195 = DIRECTION ( 'NONE',  ( 0.000000000000000000, 0.000000000000000000, 1.000000000000000000 ) ) ;
#196 = AXIS2_PLACEMENT_3D ( 'NONE', #141, #238, #85 ) ;
#197 = CYLINDRICAL_SURFACE ( 'NONE', #210, 12.50000000000000000 ) ;
#198 = CARTESIAN_POINT ( 'NONE',  ( -12.50000000000000000, 1.530808498934191521E-15, 40.00000000000000000 ) ) ;
#199 = ADVANCED_FACE ( 'NONE', ( #292, #64 ), #174, .F. ) ;
#200 = DIRECTION ( 'NONE',  ( -1.000000000000000000, 0.000000000000000000, 0.000000000000000000 ) ) ;
#201 = AXIS2_PLACEMENT_3D ( 'NONE', #103, #260, #299 ) ;
#202 = DIRECTION ( 'NONE',  ( 0.000000000000000000, 0.000000000000000000, -1.000000000000000000 ) ) ;
#203 = PLANE ( 'NONE',  #288 ) ;
#204 = EDGE_CURVE ( 'NONE', #27, #188, #60, .T. ) ;
#205 = CARTESIAN_POINT ( 'NONE',  ( 0.000000000000000000, 0.000000000000000000, 40.00000000000000000 ) ) ;
#206 = DIRECTION ( 'NONE',  ( 1.000000000000000000, 0.000000000000000000, 0.000000000000000000 ) ) ;
#207 = VERTEX_POINT ( 'NONE', #320 ) ;
#208 = CC_DESIGN_PERSON_AND_ORGANIZATION_ASSIGNMENT ( #148, #246, ( #21 ) ) ;
#209 = EDGE_LOOP ( 'NONE', ( #2, #172, #283, #303 ) ) ;
#210 = AXIS2_PLACEMENT_3D ( 'NONE', #287, #116, #291 ) ;
#211 = ORIENTED_EDGE ( 'NONE', *, *, #56, .T. ) ;
#212 = ADVANCED_FACE ( 'NONE', ( #100 ), #127, .F. ) ;
#213 = APPLICATION_PROTOCOL_DEFINITION ( 'international standard', 'config_control_design', 1994, #106 ) ;
#214 = FACE_OUTER_BOUND ( 'NONE', #262, .T. ) ;
#215 = ORIENTED_EDGE ( 'NONE', *, *, #290, .T. ) ;
#216 = VERTEX_POINT ( 'NONE', #257 ) ;
#217 = EDGE_LOOP ( 'NONE', ( #215, #300 ) ) ;
#218 = APPROVAL_PERSON_ORGANIZATION ( #7, #46, #226 ) ;
#219 = PERSON_AND_ORGANIZATION ( #45, #86 ) ;
#220 = CARTESIAN_POINT ( 'NONE',  ( 0.000000000000000000, 0.000000000000000000, 0.000000000000000000 ) ) ;
#221 = ADVANCED_FACE ( 'NONE', ( #75 ), #278, .F. ) ;
#222 = DIRECTION ( 'NONE',  ( 0.000000000000000000, 0.000000000000000000, 1.000000000000000000 ) ) ;
#223 = APPROVAL_STATUS ( 'not_yet_approved' ) ;
#224 = CIRCLE ( 'NONE', #99, 7.000000000000000000 ) ;
#225 = LINE ( 'NONE', #15, #297 ) ;
#226 = APPROVAL_ROLE ( '' ) ;
#227 = PRODUCT ( 'bj300-08040', 'bj300-08040', '', ( #3 ) ) ;
#228 = DIRECTION ( 'NONE',  ( 0.000000000000000000, 0.000000000000000000, 1.000000000000000000 ) ) ;
#229 = ORIENTED_EDGE ( 'NONE', *, *, #261, .T. ) ;
#230 =( LENGTH_UNIT ( ) NAMED_UNIT ( * ) SI_UNIT ( .MILLI., .METRE. ) );
#231 = ORIENTED_EDGE ( 'NONE', *, *, #88, .F. ) ;
#232 = CARTESIAN_POINT ( 'NONE',  ( -4.500000000000000000, 5.510910596163088569E-16, 40.00000000000000000 ) ) ;
#233 = CIRCLE ( 'NONE', #92, 12.50000000000000000 ) ;
#234 = EDGE_CURVE ( 'NONE', #160, #167, #280, .T. ) ;
#235 = CALENDAR_DATE ( 2021, 25, 10 ) ;
#236 = ORIENTED_EDGE ( 'NONE', *, *, #79, .F. ) ;
#237 = ORIENTED_EDGE ( 'NONE', *, *, #30, .F. ) ;
#238 = DIRECTION ( 'NONE',  ( 0.000000000000000000, 0.000000000000000000, 1.000000000000000000 ) ) ;
#239 = COORDINATED_UNIVERSAL_TIME_OFFSET ( 9, 0, .AHEAD. ) ;
#240 = ORIENTED_EDGE ( 'NONE', *, *, #310, .T. ) ;
#241 = AXIS2_PLACEMENT_3D ( 'NONE', #115, #304, #286 ) ;
#242 = CC_DESIGN_APPROVAL ( #76, ( #189 ) ) ;
#243 = EDGE_CURVE ( 'NONE', #170, #112, #187, .T. ) ;
#244 = APPROVAL_DATE_TIME ( #153, #121 ) ;
#245 = DIRECTION ( 'NONE',  ( 1.000000000000000000, 0.000000000000000000, 0.000000000000000000 ) ) ;
#246 = PERSON_AND_ORGANIZATION_ROLE ( 'creator' ) ;
#247 = CARTESIAN_POINT ( 'NONE',  ( 0.000000000000000000, 0.000000000000000000, 0.000000000000000000 ) ) ;
#248 = PLANE ( 'NONE',  #13 ) ;
#249 = AXIS2_PLACEMENT_3D ( 'NONE', #247, #12, #124 ) ;
#250 = DESIGN_CONTEXT ( 'detailed design', #106, 'design' ) ;
#251 = SHAPE_DEFINITION_REPRESENTATION ( #151, #48 ) ;
#252 = CARTESIAN_POINT ( 'NONE',  ( 0.000000000000000000, 0.000000000000000000, 40.00000000000000000 ) ) ;
#253 = CARTESIAN_POINT ( 'NONE',  ( 12.50000000000000000, 0.000000000000000000, 0.000000000000000000 ) ) ;
#254 = EDGE_CURVE ( 'NONE', #27, #207, #186, .T. ) ;
#255 = AXIS2_PLACEMENT_3D ( 'NONE', #322, #93, #147 ) ;
#256 = CC_DESIGN_APPROVAL ( #121, ( #52 ) ) ;
#257 = CARTESIAN_POINT ( 'NONE',  ( 4.500000000000000000, 0.000000000000000000, 7.000000000000000000 ) ) ;
#258 = PRODUCT_RELATED_PRODUCT_CATEGORY ( 'detail', '', ( #227 ) ) ;
#259 = CARTESIAN_POINT ( 'NONE',  ( 0.000000000000000000, 0.000000000000000000, 7.000000000000000000 ) ) ;
#260 = DIRECTION ( 'NONE',  ( 0.000000000000000000, 0.000000000000000000, 1.000000000000000000 ) ) ;
#261 = EDGE_CURVE ( 'NONE', #188, #216, #281, .T. ) ;
#262 = EDGE_LOOP ( 'NONE', ( #25, #33, #240, #166 ) ) ;
#263 = AXIS2_PLACEMENT_3D ( 'NONE', #272, #40, #200 ) ;
#264 = ORIENTED_EDGE ( 'NONE', *, *, #181, .T. ) ;
#265 = EDGE_LOOP ( 'NONE', ( #37, #270 ) ) ;
#266 = EDGE_CURVE ( 'NONE', #31, #309, #319, .T. ) ;
#267 = PERSON_AND_ORGANIZATION ( #45, #86 ) ;
#268 = DATE_AND_TIME ( #194, #114 ) ;
#269 = CIRCLE ( 'NONE', #104, 4.500000000000000000 ) ;
#270 = ORIENTED_EDGE ( 'NONE', *, *, #168, .T. ) ;
#271 = CALENDAR_DATE ( 2021, 25, 10 ) ;
#272 = CARTESIAN_POINT ( 'NONE',  ( 12.50000000000000000, 0.000000000000000000, 40.00000000000000000 ) ) ;
#273 = CYLINDRICAL_SURFACE ( 'NONE', #113, 4.500000000000000000 ) ;
#274 = CARTESIAN_POINT ( 'NONE',  ( 7.000000000000000000, 0.000000000000000000, 40.00000000000000000 ) ) ;
#275 = CLOSED_SHELL ( 'NONE', ( #221, #16, #161, #156, #212, #94, #142, #199, #35 ) ) ;
#276 = LOCAL_TIME ( 8, 50, 56.00000000000000000, #43 ) ;
#277 = DIRECTION ( 'NONE',  ( 1.000000000000000000, 0.000000000000000000, 0.000000000000000000 ) ) ;
#278 = CYLINDRICAL_SURFACE ( 'NONE', #5, 7.000000000000000000 ) ;
#279 =( NAMED_UNIT ( * ) PLANE_ANGLE_UNIT ( ) SI_UNIT ( $, .RADIAN. ) );
#280 = CIRCLE ( 'NONE', #165, 7.000000000000000000 ) ;
#281 = LINE ( 'NONE', #164, #305 ) ;
#282 = CARTESIAN_POINT ( 'NONE',  ( 0.000000000000000000, 0.000000000000000000, 40.00000000000000000 ) ) ;
#283 = ORIENTED_EDGE ( 'NONE', *, *, #324, .T. ) ;
#284 = AXIS2_PLACEMENT_3D ( 'NONE', #81, #190, #285 ) ;
#285 = DIRECTION ( 'NONE',  ( 1.000000000000000000, 0.000000000000000000, 0.000000000000000000 ) ) ;
#286 = DIRECTION ( 'NONE',  ( 1.000000000000000000, 0.000000000000000000, 0.000000000000000000 ) ) ;
#287 = CARTESIAN_POINT ( 'NONE',  ( 0.000000000000000000, 0.000000000000000000, 40.00000000000000000 ) ) ;
#288 = AXIS2_PLACEMENT_3D ( 'NONE', #69, #202, #179 ) ;
#289 = ORIENTED_EDGE ( 'NONE', *, *, #204, .T. ) ;
#290 = EDGE_CURVE ( 'NONE', #309, #31, #184, .T. ) ;
#291 = DIRECTION ( 'NONE',  ( 1.000000000000000000, 0.000000000000000000, 0.000000000000000000 ) ) ;
#292 = FACE_BOUND ( 'NONE', #53, .T. ) ;
#293 = DIRECTION ( 'NONE',  ( 0.000000000000000000, 0.000000000000000000, 1.000000000000000000 ) ) ;
#294 = LOCAL_TIME ( 8, 50, 56.00000000000000000, #123 ) ;
#295 = EDGE_LOOP ( 'NONE', ( #136, #105, #130, #11 ) ) ;
#296 = DIRECTION ( 'NONE',  ( 1.000000000000000000, 0.000000000000000000, 0.000000000000000000 ) ) ;
#297 = VECTOR ( 'NONE', #222, 1000.000000000000000 ) ;
#298 = DIRECTION ( 'NONE',  ( 0.000000000000000000, 0.000000000000000000, 1.000000000000000000 ) ) ;
#299 = DIRECTION ( 'NONE',  ( 1.000000000000000000, 0.000000000000000000, 0.000000000000000000 ) ) ;
#300 = ORIENTED_EDGE ( 'NONE', *, *, #266, .T. ) ;
#301 = EDGE_CURVE ( 'NONE', #112, #109, #34, .T. ) ;
#302 = CIRCLE ( 'NONE', #284, 4.500000000000000000 ) ;
#303 = ORIENTED_EDGE ( 'NONE', *, *, #261, .F. ) ;
#304 = DIRECTION ( 'NONE',  ( 0.000000000000000000, 0.000000000000000000, 1.000000000000000000 ) ) ;
#305 = VECTOR ( 'NONE', #131, 1000.000000000000000 ) ;
#306 = DATE_AND_TIME ( #235, #57 ) ;
#307 = CARTESIAN_POINT ( 'NONE',  ( -12.50000000000000000, 1.530808498934191521E-15, 40.00000000000000000 ) ) ;
#308 = MANIFOLD_SOLID_BREP ( 'Imported1', #275 ) ;
#309 = VERTEX_POINT ( 'NONE', #18 ) ;
#310 = EDGE_CURVE ( 'NONE', #309, #160, #129, .T. ) ;
#311 = PERSON_AND_ORGANIZATION ( #45, #86 ) ;
#312 = AXIS2_PLACEMENT_3D ( 'NONE', #282, #326, #26 ) ;
#313 = CARTESIAN_POINT ( 'NONE',  ( -12.50000000000000000, 1.530808498934191521E-15, 0.000000000000000000 ) ) ;
#314 = CALENDAR_DATE ( 2021, 25, 10 ) ;
#315 = CYLINDRICAL_SURFACE ( 'NONE', #255, 12.50000000000000000 ) ;
#316 = APPROVAL_STATUS ( 'not_yet_approved' ) ;
#317 = CC_DESIGN_PERSON_AND_ORGANIZATION_ASSIGNMENT ( #311, #191, ( #227 ) ) ;
#318 = CARTESIAN_POINT ( 'NONE',  ( 4.500000000000000000, 0.000000000000000000, 0.000000000000000000 ) ) ;
#319 = CIRCLE ( 'NONE', #175, 7.000000000000000000 ) ;
#320 = CARTESIAN_POINT ( 'NONE',  ( -4.500000000000000000, 5.510910596163088569E-16, 7.000000000000000000 ) ) ;
#321 = SECURITY_CLASSIFICATION_LEVEL ( 'unclassified' ) ;
#322 = CARTESIAN_POINT ( 'NONE',  ( 0.000000000000000000, 0.000000000000000000, 40.00000000000000000 ) ) ;
#323 = DATE_AND_TIME ( #68, #72 ) ;
#324 = EDGE_CURVE ( 'NONE', #207, #216, #269, .T. ) ;
#325 = CARTESIAN_POINT ( 'NONE',  ( 7.000000000000000000, 0.000000000000000000, 40.00000000000000000 ) ) ;
#326 = DIRECTION ( 'NONE',  ( 0.000000000000000000, 0.000000000000000000, 1.000000000000000000 ) ) ;
#327 = DIRECTION ( 'NONE',  ( 1.000000000000000000, 0.000000000000000000, 0.000000000000000000 ) ) ;
#328 = DIRECTION ( 'NONE',  ( 0.000000000000000000, 0.000000000000000000, 1.000000000000000000 ) ) ;
#329 = ORIENTED_EDGE ( 'NONE', *, *, #234, .F. ) ;
ENDSEC;
END-ISO-10303-21;
