ISO-10303-21;
HEADER;
FILE_DESCRIPTION (( 'STEP AP203' ),
    '1' );
FILE_NAME ('bj720-12001.STEP',
    '2021-10-24T23:59:13',
    ( '' ),
    ( '' ),
    'SwSTEP 2.0',
    'SolidWorks 2020',
    '' );
FILE_SCHEMA (( 'CONFIG_CONTROL_DESIGN' ));
ENDSEC;

DATA;
#1 = VERTEX_POINT ( 'NONE', #24 ) ;
#2 = AXIS2_PLACEMENT_3D ( 'NONE', #291, #16, #19 ) ;
#3 = ORIENTED_EDGE ( 'NONE', *, *, #238, .T. ) ;
#4 = CARTESIAN_POINT ( 'NONE',  ( -6.000000000000000000, 7.347880794884119736E-16, 2.000000000000000000 ) ) ;
#5 = PERSON_AND_ORGANIZATION ( #223, #276 ) ;
#6 = CONICAL_SURFACE ( 'NONE', #343, 6.000000000000000000, 0.5235987755982987046 ) ;
#7 = PERSON_AND_ORGANIZATION ( #223, #276 ) ;
#8 = PERSON_AND_ORGANIZATION ( #223, #276 ) ;
#9 = CIRCLE ( 'NONE', #78, 6.000000000000000000 ) ;
#10 = EDGE_CURVE ( 'NONE', #298, #175, #73, .T. ) ;
#11 = ORIENTED_EDGE ( 'NONE', *, *, #148, .F. ) ;
#12 = VERTEX_POINT ( 'NONE', #194 ) ;
#13 = CARTESIAN_POINT ( 'NONE',  ( 0.000000000000000000, 0.000000000000000000, 2.000000000000000000 ) ) ;
#14 = CIRCLE ( 'NONE', #287, 2.500000000000000000 ) ;
#15 = ORIENTED_EDGE ( 'NONE', *, *, #212, .F. ) ;
#16 = DIRECTION ( 'NONE',  ( 0.000000000000000000, 0.000000000000000000, 1.000000000000000000 ) ) ;
#17 = VERTEX_POINT ( 'NONE', #157 ) ;
#18 = ORIENTED_EDGE ( 'NONE', *, *, #335, .T. ) ;
#19 = DIRECTION ( 'NONE',  ( 1.000000000000000000, 0.000000000000000000, 0.000000000000000000 ) ) ;
#20 = ORIENTED_EDGE ( 'NONE', *, *, #128, .F. ) ;
#21 = DIRECTION ( 'NONE',  ( 1.000000000000000000, 0.000000000000000000, 0.000000000000000000 ) ) ;
#22 = EDGE_LOOP ( 'NONE', ( #328, #236, #47, #294 ) ) ;
#23 = CIRCLE ( 'NONE', #100, 4.845299461620750314 ) ;
#24 = CARTESIAN_POINT ( 'NONE',  ( -2.500000000000000000, 3.061616997868383141E-16, 24.00000000000000000 ) ) ;
#25 = AXIS2_PLACEMENT_3D ( 'NONE', #345, #61, #117 ) ;
#26 = CARTESIAN_POINT ( 'NONE',  ( 4.845299461620750314, 0.000000000000000000, 0.000000000000000000 ) ) ;
#27 = CALENDAR_DATE ( 2021, 25, 10 ) ;
#28 = PRODUCT_DEFINITION ( 'UNKNOWN', '', #190, #197 ) ;
#29 = PERSON_AND_ORGANIZATION_ROLE ( 'design_supplier' ) ;
#30 = VECTOR ( 'NONE', #352, 1000.000000000000000 ) ;
#31 = SECURITY_CLASSIFICATION ( '', '', #331 ) ;
#32 = CYLINDRICAL_SURFACE ( 'NONE', #131, 2.500000000000000000 ) ;
#33 = PERSON_AND_ORGANIZATION_ROLE ( 'creator' ) ;
#34 = APPROVAL_ROLE ( '' ) ;
#35 = AXIS2_PLACEMENT_3D ( 'NONE', #342, #146, #64 ) ;
#36 = ADVANCED_BREP_SHAPE_REPRESENTATION ( 'bj720-12001', ( #140, #250 ), #327 ) ;
#37 = CC_DESIGN_APPROVAL ( #195, ( #28 ) ) ;
#38 = FACE_OUTER_BOUND ( 'NONE', #325, .T. ) ;
#39 = ORIENTED_EDGE ( 'NONE', *, *, #262, .T. ) ;
#40 = DIRECTION ( 'NONE',  ( 1.000000000000000000, 0.000000000000000000, 0.000000000000000000 ) ) ;
#41 = CC_DESIGN_PERSON_AND_ORGANIZATION_ASSIGNMENT ( #5, #29, ( #190 ) ) ;
#42 = DIRECTION ( 'NONE',  ( 1.000000000000000000, 0.000000000000000000, 0.000000000000000000 ) ) ;
#43 = CLOSED_SHELL ( 'NONE', ( #74, #355, #329, #243, #167, #311, #85, #183, #46, #149, #326 ) ) ;
#44 = DIRECTION ( 'NONE',  ( -0.5000000000000003331, 0.000000000000000000, -0.8660254037844383745 ) ) ;
#45 = VERTEX_POINT ( 'NONE', #26 ) ;
#46 = ADVANCED_FACE ( 'NONE', ( #201, #277 ), #99, .F. ) ;
#47 = ORIENTED_EDGE ( 'NONE', *, *, #109, .T. ) ;
#48 = CARTESIAN_POINT ( 'NONE',  ( 0.000000000000000000, 0.000000000000000000, 50.00000000000000000 ) ) ;
#49 =( NAMED_UNIT ( * ) PLANE_ANGLE_UNIT ( ) SI_UNIT ( $, .RADIAN. ) );
#50 = CC_DESIGN_APPROVAL ( #97, ( #190 ) ) ;
#51 = DIRECTION ( 'NONE',  ( -1.000000000000000000, 0.000000000000000000, 0.000000000000000000 ) ) ;
#52 = PERSON_AND_ORGANIZATION ( #223, #276 ) ;
#53 = APPROVAL_DATE_TIME ( #336, #97 ) ;
#54 = CIRCLE ( 'NONE', #153, 6.000000000000000000 ) ;
#55 = VERTEX_POINT ( 'NONE', #338 ) ;
#56 = CARTESIAN_POINT ( 'NONE',  ( 0.000000000000000000, 0.000000000000000000, 34.00000000000000000 ) ) ;
#57 = APPROVAL_ROLE ( '' ) ;
#58 = CIRCLE ( 'NONE', #313, 6.000000000000000000 ) ;
#59 = CARTESIAN_POINT ( 'NONE',  ( 6.000000000000000000, 0.000000000000000000, 30.00000000000000000 ) ) ;
#60 = EDGE_CURVE ( 'NONE', #215, #96, #114, .T. ) ;
#61 = DIRECTION ( 'NONE',  ( 0.000000000000000000, 0.000000000000000000, -1.000000000000000000 ) ) ;
#62 = CARTESIAN_POINT ( 'NONE',  ( -2.500000000000000000, 3.061616997868383141E-16, 50.00000000000000000 ) ) ;
#63 = AXIS2_PLACEMENT_3D ( 'NONE', #66, #135, #227 ) ;
#64 = DIRECTION ( 'NONE',  ( 1.000000000000000000, 0.000000000000000000, 0.000000000000000000 ) ) ;
#65 = ORIENTED_EDGE ( 'NONE', *, *, #60, .T. ) ;
#66 = CARTESIAN_POINT ( 'NONE',  ( 0.000000000000000000, 0.000000000000000000, 0.000000000000000000 ) ) ;
#67 = FACE_OUTER_BOUND ( 'NONE', #180, .T. ) ;
#68 = CARTESIAN_POINT ( 'NONE',  ( 2.500000000000000000, 0.000000000000000000, 24.00000000000000000 ) ) ;
#69 = EDGE_CURVE ( 'NONE', #12, #289, #293, .T. ) ;
#70 = AXIS2_PLACEMENT_3D ( 'NONE', #283, #80, #72 ) ;
#71 = DIRECTION ( 'NONE',  ( 0.000000000000000000, 0.000000000000000000, 1.000000000000000000 ) ) ;
#72 = DIRECTION ( 'NONE',  ( 1.000000000000000000, 0.000000000000000000, 0.000000000000000000 ) ) ;
#73 = LINE ( 'NONE', #245, #302 ) ;
#74 = ADVANCED_FACE ( 'NONE', ( #108 ), #32, .F. ) ;
#75 = DIRECTION ( 'NONE',  ( 1.000000000000000000, 0.000000000000000000, 0.000000000000000000 ) ) ;
#76 = PERSON_AND_ORGANIZATION_ROLE ( 'creator' ) ;
#77 = CALENDAR_DATE ( 2021, 25, 10 ) ;
#78 = AXIS2_PLACEMENT_3D ( 'NONE', #122, #319, #261 ) ;
#79 = CONICAL_SURFACE ( 'NONE', #129, 6.000000000000000000, 0.5235987755982992597 ) ;
#80 = DIRECTION ( 'NONE',  ( 0.000000000000000000, 0.000000000000000000, 1.000000000000000000 ) ) ;
#81 = CARTESIAN_POINT ( 'NONE',  ( 2.500000000000000000, 0.000000000000000000, 34.00000000000000000 ) ) ;
#82 = CARTESIAN_POINT ( 'NONE',  ( 0.000000000000000000, 0.000000000000000000, 24.00000000000000000 ) ) ;
#83 = ORIENTED_EDGE ( 'NONE', *, *, #262, .F. ) ;
#84 = CARTESIAN_POINT ( 'NONE',  ( 0.000000000000000000, 0.000000000000000000, 50.00000000000000000 ) ) ;
#85 = ADVANCED_FACE ( 'NONE', ( #344 ), #151, .T. ) ;
#86 = ORIENTED_EDGE ( 'NONE', *, *, #335, .F. ) ;
#87 = ORIENTED_EDGE ( 'NONE', *, *, #233, .T. ) ;
#88 = DIRECTION ( 'NONE',  ( 0.000000000000000000, 0.000000000000000000, 1.000000000000000000 ) ) ;
#89 = PRODUCT_RELATED_PRODUCT_CATEGORY ( 'detail', '', ( #177 ) ) ;
#90 = ORIENTED_EDGE ( 'NONE', *, *, #258, .F. ) ;
#91 = DIRECTION ( 'NONE',  ( 0.000000000000000000, 0.000000000000000000, 1.000000000000000000 ) ) ;
#92 = LOCAL_TIME ( 8, 59, 13.00000000000000000, #310 ) ;
#93 = EDGE_LOOP ( 'NONE', ( #348, #216, #145, #274 ) ) ;
#94 = LINE ( 'NONE', #152, #249 ) ;
#95 = LINE ( 'NONE', #125, #30 ) ;
#96 = VERTEX_POINT ( 'NONE', #59 ) ;
#97 = APPROVAL ( #309, 'UNSPECIFIED' ) ;
#98 = VECTOR ( 'NONE', #169, 1000.000000000000000 ) ;
#99 = PLANE ( 'NONE',  #244 ) ;
#100 = AXIS2_PLACEMENT_3D ( 'NONE', #221, #199, #209 ) ;
#101 = FACE_OUTER_BOUND ( 'NONE', #242, .T. ) ;
#102 = PERSON_AND_ORGANIZATION ( #223, #276 ) ;
#103 = CC_DESIGN_SECURITY_CLASSIFICATION ( #31, ( #190 ) ) ;
#104 = ORIENTED_EDGE ( 'NONE', *, *, #155, .T. ) ;
#105 = APPROVAL_STATUS ( 'not_yet_approved' ) ;
#106 = DIRECTION ( 'NONE',  ( 0.000000000000000000, 0.000000000000000000, 1.000000000000000000 ) ) ;
#107 = COORDINATED_UNIVERSAL_TIME_OFFSET ( 9, 0, .AHEAD. ) ;
#108 = FACE_OUTER_BOUND ( 'NONE', #213, .T. ) ;
#109 = EDGE_CURVE ( 'NONE', #45, #147, #95, .T. ) ;
#110 = AXIS2_PLACEMENT_3D ( 'NONE', #56, #171, #75 ) ;
#111 = LOCAL_TIME ( 8, 59, 13.00000000000000000, #107 ) ;
#112 = VERTEX_POINT ( 'NONE', #269 ) ;
#113 = APPLICATION_PROTOCOL_DEFINITION ( 'international standard', 'config_control_design', 1994, #257 ) ;
#114 = LINE ( 'NONE', #312, #189 ) ;
#115 = APPROVAL ( #105, 'UNSPECIFIED' ) ;
#116 = DIRECTION ( 'NONE',  ( 0.000000000000000000, 0.000000000000000000, 1.000000000000000000 ) ) ;
#117 = DIRECTION ( 'NONE',  ( -1.000000000000000000, 0.000000000000000000, 0.000000000000000000 ) ) ;
#118 = ORIENTED_EDGE ( 'NONE', *, *, #156, .T. ) ;
#119 = DIRECTION ( 'NONE',  ( 1.000000000000000000, 0.000000000000000000, 0.000000000000000000 ) ) ;
#120 = AXIS2_PLACEMENT_3D ( 'NONE', #172, #116, #346 ) ;
#121 = PLANE ( 'NONE',  #321 ) ;
#122 = CARTESIAN_POINT ( 'NONE',  ( 0.000000000000000000, 0.000000000000000000, 30.00000000000000000 ) ) ;
#123 = DIRECTION ( 'NONE',  ( 0.000000000000000000, 0.000000000000000000, 1.000000000000000000 ) ) ;
#124 = EDGE_CURVE ( 'NONE', #55, #215, #330, .T. ) ;
#125 = CARTESIAN_POINT ( 'NONE',  ( 6.000000000000000000, 0.000000000000000000, 2.000000000000000000 ) ) ;
#126 = EDGE_LOOP ( 'NONE', ( #83, #260, #104, #259 ) ) ;
#127 =( LENGTH_UNIT ( ) NAMED_UNIT ( * ) SI_UNIT ( .MILLI., .METRE. ) );
#128 = EDGE_CURVE ( 'NONE', #96, #112, #9, .T. ) ;
#129 = AXIS2_PLACEMENT_3D ( 'NONE', #186, #217, #51 ) ;
#130 = CC_DESIGN_PERSON_AND_ORGANIZATION_ASSIGNMENT ( #168, #252, ( #177 ) ) ;
#131 = AXIS2_PLACEMENT_3D ( 'NONE', #237, #91, #322 ) ;
#132 = LOCAL_TIME ( 8, 59, 13.00000000000000000, #280 ) ;
#133 = CYLINDRICAL_SURFACE ( 'NONE', #270, 2.500000000000000000 ) ;
#134 = CALENDAR_DATE ( 2021, 25, 10 ) ;
#135 = DIRECTION ( 'NONE',  ( 0.000000000000000000, 0.000000000000000000, 1.000000000000000000 ) ) ;
#136 = APPLICATION_PROTOCOL_DEFINITION ( 'international standard', 'config_control_design', 1994, #229 ) ;
#137 = ORIENTED_EDGE ( 'NONE', *, *, #212, .T. ) ;
#138 = EDGE_CURVE ( 'NONE', #147, #289, #58, .T. ) ;
#139 = DATE_AND_TIME ( #134, #241 ) ;
#140 = MANIFOLD_SOLID_BREP ( 'Imported1', #43 ) ;
#141 = SHAPE_DEFINITION_REPRESENTATION ( #143, #36 ) ;
#142 = DIRECTION ( 'NONE',  ( 1.000000000000000000, 0.000000000000000000, 0.000000000000000000 ) ) ;
#143 = PRODUCT_DEFINITION_SHAPE ( 'NONE', 'NONE',  #28 ) ;
#144 = ORIENTED_EDGE ( 'NONE', *, *, #124, .T. ) ;
#145 = ORIENTED_EDGE ( 'NONE', *, *, #10, .T. ) ;
#146 = DIRECTION ( 'NONE',  ( 0.000000000000000000, 0.000000000000000000, 1.000000000000000000 ) ) ;
#147 = VERTEX_POINT ( 'NONE', #196 ) ;
#148 = EDGE_CURVE ( 'NONE', #215, #55, #295, .T. ) ;
#149 = ADVANCED_FACE ( 'NONE', ( #304 ), #133, .F. ) ;
#150 = ORIENTED_EDGE ( 'NONE', *, *, #255, .T. ) ;
#151 = CYLINDRICAL_SURFACE ( 'NONE', #275, 6.000000000000000000 ) ;
#152 = CARTESIAN_POINT ( 'NONE',  ( -6.000000000000000000, 7.347880794884119736E-16, 50.00000000000000000 ) ) ;
#153 = AXIS2_PLACEMENT_3D ( 'NONE', #264, #181, #21 ) ;
#154 = EDGE_CURVE ( 'NONE', #12, #45, #23, .T. ) ;
#155 = EDGE_CURVE ( 'NONE', #147, #96, #211, .T. ) ;
#156 = EDGE_CURVE ( 'NONE', #1, #298, #165, .T. ) ;
#157 = CARTESIAN_POINT ( 'NONE',  ( -2.500000000000000000, 3.061616997868383141E-16, 34.00000000000000000 ) ) ;
#158 = CIRCLE ( 'NONE', #120, 6.000000000000000000 ) ;
#159 = DIRECTION ( 'NONE',  ( 0.000000000000000000, 0.000000000000000000, 1.000000000000000000 ) ) ;
#160 = PERSON_AND_ORGANIZATION ( #223, #276 ) ;
#161 = DIRECTION ( 'NONE',  ( 0.000000000000000000, 0.000000000000000000, -1.000000000000000000 ) ) ;
#162 = DIRECTION ( 'NONE',  ( 1.000000000000000000, 0.000000000000000000, 0.000000000000000000 ) ) ;
#163 = ORIENTED_EDGE ( 'NONE', *, *, #10, .F. ) ;
#164 = CC_DESIGN_PERSON_AND_ORGANIZATION_ASSIGNMENT ( #160, #76, ( #28 ) ) ;
#165 = CIRCLE ( 'NONE', #339, 2.500000000000000000 ) ;
#166 = DATE_AND_TIME ( #224, #219 ) ;
#167 = ADVANCED_FACE ( 'NONE', ( #101 ), #121, .F. ) ;
#168 = PERSON_AND_ORGANIZATION ( #223, #276 ) ;
#169 = DIRECTION ( 'NONE',  ( -0.4999999999999998890, 6.123233995736764803E-17, 0.8660254037844387076 ) ) ;
#170 = DIRECTION ( 'NONE',  ( 0.5000000000000003331, 6.123233995736769734E-17, -0.8660254037844383745 ) ) ;
#171 = DIRECTION ( 'NONE',  ( 0.000000000000000000, 0.000000000000000000, 1.000000000000000000 ) ) ;
#172 = CARTESIAN_POINT ( 'NONE',  ( 0.000000000000000000, 0.000000000000000000, 2.000000000000000000 ) ) ;
#173 = VECTOR ( 'NONE', #317, 1000.000000000000000 ) ;
#174 = AXIS2_PLACEMENT_3D ( 'NONE', #48, #318, #40 ) ;
#175 = VERTEX_POINT ( 'NONE', #81 ) ;
#176 = CARTESIAN_POINT ( 'NONE',  ( 0.000000000000000000, 0.000000000000000000, 34.00000000000000000 ) ) ;
#177 = PRODUCT ( 'bj720-12001', 'bj720-12001', '', ( #206 ) ) ;
#178 = ORIENTED_EDGE ( 'NONE', *, *, #156, .F. ) ;
#179 = LINE ( 'NONE', #263, #256 ) ;
#180 = EDGE_LOOP ( 'NONE', ( #11, #65, #285, #15 ) ) ;
#181 = DIRECTION ( 'NONE',  ( 0.000000000000000000, 0.000000000000000000, 1.000000000000000000 ) ) ;
#182 = VECTOR ( 'NONE', #332, 1000.000000000000000 ) ;
#183 = ADVANCED_FACE ( 'NONE', ( #235 ), #282, .T. ) ;
#184 = CIRCLE ( 'NONE', #63, 4.845299461620750314 ) ;
#185 = DIRECTION ( 'NONE',  ( 1.000000000000000000, 0.000000000000000000, 0.000000000000000000 ) ) ;
#186 = CARTESIAN_POINT ( 'NONE',  ( 0.000000000000000000, 0.000000000000000000, 30.00000000000000000 ) ) ;
#187 = CARTESIAN_POINT ( 'NONE',  ( 0.000000000000000000, 0.000000000000000000, 2.000000000000000000 ) ) ;
#188 = DIRECTION ( 'NONE',  ( 0.000000000000000000, 0.000000000000000000, 1.000000000000000000 ) ) ;
#189 = VECTOR ( 'NONE', #170, 1000.000000000000114 ) ;
#190 = PRODUCT_DEFINITION_FORMATION_WITH_SPECIFIED_SOURCE ( 'ANY', '', #177, .NOT_KNOWN. ) ;
#191 = EDGE_LOOP ( 'NONE', ( #18, #267, #349, #253 ) ) ;
#192 = CARTESIAN_POINT ( 'NONE',  ( -6.000000000000000000, 7.347880794884119736E-16, 2.000000000000000000 ) ) ;
#193 = CARTESIAN_POINT ( 'NONE',  ( 0.000000000000000000, 0.000000000000000000, 24.00000000000000000 ) ) ;
#194 = CARTESIAN_POINT ( 'NONE',  ( -4.845299461620750314, 6.640830635734183929E-16, 0.000000000000000000 ) ) ;
#195 = APPROVAL ( #228, 'UNSPECIFIED' ) ;
#196 = CARTESIAN_POINT ( 'NONE',  ( 6.000000000000000000, 0.000000000000000000, 2.000000000000000000 ) ) ;
#197 = DESIGN_CONTEXT ( 'detailed design', #257, 'design' ) ;
#198 = AXIS2_PLACEMENT_3D ( 'NONE', #176, #292, #42 ) ;
#199 = DIRECTION ( 'NONE',  ( 0.000000000000000000, 0.000000000000000000, 1.000000000000000000 ) ) ;
#200 = APPROVAL_PERSON_ORGANIZATION ( #102, #195, #57 ) ;
#201 = FACE_BOUND ( 'NONE', #300, .T. ) ;
#202 = COORDINATED_UNIVERSAL_TIME_OFFSET ( 9, 0, .AHEAD. ) ;
#203 = APPROVAL_DATE_TIME ( #341, #115 ) ;
#204 = PERSON_AND_ORGANIZATION ( #223, #276 ) ;
#205 = CARTESIAN_POINT ( 'NONE',  ( 3.690598923241485085, 5.933780476584235304E-16, 34.00000000000000000 ) ) ;
#206 = MECHANICAL_CONTEXT ( 'NONE', #229, 'mechanical' ) ;
#207 = CIRCLE ( 'NONE', #306, 2.500000000000000000 ) ;
#208 = APPROVAL_PERSON_ORGANIZATION ( #8, #97, #34 ) ;
#209 = DIRECTION ( 'NONE',  ( 1.000000000000000000, 0.000000000000000000, 0.000000000000000000 ) ) ;
#210 = DIRECTION ( 'NONE',  ( 0.000000000000000000, 0.000000000000000000, 1.000000000000000000 ) ) ;
#211 = LINE ( 'NONE', #273, #182 ) ;
#212 = EDGE_CURVE ( 'NONE', #55, #112, #179, .T. ) ;
#213 = EDGE_LOOP ( 'NONE', ( #178, #220, #87, #163 ) ) ;
#214 = ORIENTED_EDGE ( 'NONE', *, *, #154, .F. ) ;
#215 = VERTEX_POINT ( 'NONE', #205 ) ;
#216 = ORIENTED_EDGE ( 'NONE', *, *, #238, .F. ) ;
#217 = DIRECTION ( 'NONE',  ( 0.000000000000000000, 0.000000000000000000, -1.000000000000000000 ) ) ;
#218 = CONICAL_SURFACE ( 'NONE', #2, 6.000000000000000000, 0.5235987755982987046 ) ;
#219 = LOCAL_TIME ( 8, 59, 13.00000000000000000, #248 ) ;
#220 = ORIENTED_EDGE ( 'NONE', *, *, #246, .T. ) ;
#221 = CARTESIAN_POINT ( 'NONE',  ( 0.000000000000000000, 0.000000000000000000, 0.000000000000000000 ) ) ;
#222 = PERSON_AND_ORGANIZATION_ROLE ( 'classification_officer' ) ;
#223 = PERSON ( 'UNSPECIFIED', 'UNSPECIFIED', 'UNSPECIFIED', ('UNSPECIFIED'), ('UNSPECIFIED'), ('UNSPECIFIED') ) ;
#224 = CALENDAR_DATE ( 2021, 25, 10 ) ;
#225 = CARTESIAN_POINT ( 'NONE',  ( 0.000000000000000000, 0.000000000000000000, 0.000000000000000000 ) ) ;
#226 = CC_DESIGN_DATE_AND_TIME_ASSIGNMENT ( #139, #284, ( #31 ) ) ;
#227 = DIRECTION ( 'NONE',  ( 1.000000000000000000, 0.000000000000000000, 0.000000000000000000 ) ) ;
#228 = APPROVAL_STATUS ( 'not_yet_approved' ) ;
#229 = APPLICATION_CONTEXT ( 'configuration controlled 3d designs of mechanical parts and assemblies' ) ;
#230 = ORIENTED_EDGE ( 'NONE', *, *, #124, .F. ) ;
#231 = CC_DESIGN_APPROVAL ( #115, ( #31 ) ) ;
#232 = EDGE_CURVE ( 'NONE', #289, #147, #158, .T. ) ;
#233 = EDGE_CURVE ( 'NONE', #17, #175, #350, .T. ) ;
#234 = LINE ( 'NONE', #62, #173 ) ;
#235 = FACE_OUTER_BOUND ( 'NONE', #315, .T. ) ;
#236 = ORIENTED_EDGE ( 'NONE', *, *, #154, .T. ) ;
#237 = CARTESIAN_POINT ( 'NONE',  ( 0.000000000000000000, 0.000000000000000000, 50.00000000000000000 ) ) ;
#238 = EDGE_CURVE ( 'NONE', #298, #1, #14, .T. ) ;
#239 = ORIENTED_EDGE ( 'NONE', *, *, #138, .T. ) ;
#240 = EDGE_LOOP ( 'NONE', ( #144, #290 ) ) ;
#241 = LOCAL_TIME ( 8, 59, 13.00000000000000000, #202 ) ;
#242 = EDGE_LOOP ( 'NONE', ( #86, #214 ) ) ;
#243 = ADVANCED_FACE ( 'NONE', ( #299 ), #218, .T. ) ;
#244 = AXIS2_PLACEMENT_3D ( 'NONE', #303, #161, #281 ) ;
#245 = CARTESIAN_POINT ( 'NONE',  ( 2.500000000000000000, 0.000000000000000000, 50.00000000000000000 ) ) ;
#246 = EDGE_CURVE ( 'NONE', #1, #17, #234, .T. ) ;
#247 = CC_DESIGN_PERSON_AND_ORGANIZATION_ASSIGNMENT ( #52, #33, ( #190 ) ) ;
#248 = COORDINATED_UNIVERSAL_TIME_OFFSET ( 9, 0, .AHEAD. ) ;
#249 = VECTOR ( 'NONE', #159, 1000.000000000000000 ) ;
#250 = AXIS2_PLACEMENT_3D ( 'NONE', #225, #308, #162 ) ;
#251 = CARTESIAN_POINT ( 'NONE',  ( 0.000000000000000000, 0.000000000000000000, 50.00000000000000000 ) ) ;
#252 = PERSON_AND_ORGANIZATION_ROLE ( 'design_owner' ) ;
#253 = ORIENTED_EDGE ( 'NONE', *, *, #109, .F. ) ;
#254 = APPROVAL_DATE_TIME ( #340, #195 ) ;
#255 = EDGE_CURVE ( 'NONE', #112, #96, #54, .T. ) ;
#256 = VECTOR ( 'NONE', #44, 1000.000000000000114 ) ;
#257 = APPLICATION_CONTEXT ( 'configuration controlled 3d designs of mechanical parts and assemblies' ) ;
#258 = EDGE_CURVE ( 'NONE', #175, #17, #207, .T. ) ;
#259 = ORIENTED_EDGE ( 'NONE', *, *, #255, .F. ) ;
#260 = ORIENTED_EDGE ( 'NONE', *, *, #232, .T. ) ;
#261 = DIRECTION ( 'NONE',  ( 1.000000000000000000, 0.000000000000000000, 0.000000000000000000 ) ) ;
#262 = EDGE_CURVE ( 'NONE', #289, #112, #94, .T. ) ;
#263 = CARTESIAN_POINT ( 'NONE',  ( -6.000000000000000000, 0.000000000000000000, 30.00000000000000000 ) ) ;
#264 = CARTESIAN_POINT ( 'NONE',  ( 0.000000000000000000, 0.000000000000000000, 30.00000000000000000 ) ) ;
#265 = DIRECTION ( 'NONE',  ( 1.000000000000000000, 0.000000000000000000, 0.000000000000000000 ) ) ;
#266 =( NAMED_UNIT ( * ) SI_UNIT ( $, .STERADIAN. ) SOLID_ANGLE_UNIT ( ) );
#267 = ORIENTED_EDGE ( 'NONE', *, *, #69, .T. ) ;
#268 = FACE_OUTER_BOUND ( 'NONE', #316, .T. ) ;
#269 = CARTESIAN_POINT ( 'NONE',  ( -6.000000000000000000, 7.347880794884119736E-16, 30.00000000000000000 ) ) ;
#270 = AXIS2_PLACEMENT_3D ( 'NONE', #251, #106, #278 ) ;
#271 = DIRECTION ( 'NONE',  ( 1.000000000000000000, 0.000000000000000000, 0.000000000000000000 ) ) ;
#272 = FACE_OUTER_BOUND ( 'NONE', #22, .T. ) ;
#273 = CARTESIAN_POINT ( 'NONE',  ( 6.000000000000000000, 0.000000000000000000, 50.00000000000000000 ) ) ;
#274 = ORIENTED_EDGE ( 'NONE', *, *, #258, .T. ) ;
#275 = AXIS2_PLACEMENT_3D ( 'NONE', #84, #210, #265 ) ;
#276 = ORGANIZATION ( 'UNSPECIFIED', 'UNSPECIFIED', '' ) ;
#277 = FACE_OUTER_BOUND ( 'NONE', #240, .T. ) ;
#278 = DIRECTION ( 'NONE',  ( 1.000000000000000000, 0.000000000000000000, 0.000000000000000000 ) ) ;
#279 = CC_DESIGN_DATE_AND_TIME_ASSIGNMENT ( #166, #286, ( #28 ) ) ;
#280 = COORDINATED_UNIVERSAL_TIME_OFFSET ( 9, 0, .AHEAD. ) ;
#281 = DIRECTION ( 'NONE',  ( -1.000000000000000000, 0.000000000000000000, 0.000000000000000000 ) ) ;
#282 = CONICAL_SURFACE ( 'NONE', #25, 6.000000000000000000, 0.5235987755982992597 ) ;
#283 = CARTESIAN_POINT ( 'NONE',  ( 0.000000000000000000, 0.000000000000000000, 24.00000000000000000 ) ) ;
#284 = DATE_TIME_ROLE ( 'classification_date' ) ;
#285 = ORIENTED_EDGE ( 'NONE', *, *, #128, .T. ) ;
#286 = DATE_TIME_ROLE ( 'creation_date' ) ;
#287 = AXIS2_PLACEMENT_3D ( 'NONE', #82, #314, #185 ) ;
#288 = CARTESIAN_POINT ( 'NONE',  ( 0.000000000000000000, 0.000000000000000000, 0.000000000000000000 ) ) ;
#289 = VERTEX_POINT ( 'NONE', #192 ) ;
#290 = ORIENTED_EDGE ( 'NONE', *, *, #148, .T. ) ;
#291 = CARTESIAN_POINT ( 'NONE',  ( 0.000000000000000000, 0.000000000000000000, 2.000000000000000000 ) ) ;
#292 = DIRECTION ( 'NONE',  ( 0.000000000000000000, 0.000000000000000000, 1.000000000000000000 ) ) ;
#293 = LINE ( 'NONE', #4, #98 ) ;
#294 = ORIENTED_EDGE ( 'NONE', *, *, #232, .F. ) ;
#295 = CIRCLE ( 'NONE', #110, 3.690598923241485085 ) ;
#296 = CARTESIAN_POINT ( 'NONE',  ( 0.000000000000000000, 0.000000000000000000, 34.00000000000000000 ) ) ;
#297 = APPROVAL_PERSON_ORGANIZATION ( #7, #115, #333 ) ;
#298 = VERTEX_POINT ( 'NONE', #68 ) ;
#299 = FACE_OUTER_BOUND ( 'NONE', #191, .T. ) ;
#300 = EDGE_LOOP ( 'NONE', ( #90, #354 ) ) ;
#301 = DIRECTION ( 'NONE',  ( 0.000000000000000000, 0.000000000000000000, 1.000000000000000000 ) ) ;
#302 = VECTOR ( 'NONE', #71, 1000.000000000000000 ) ;
#303 = CARTESIAN_POINT ( 'NONE',  ( 3.690598923241485085, 0.000000000000000000, 34.00000000000000000 ) ) ;
#304 = FACE_OUTER_BOUND ( 'NONE', #93, .T. ) ;
#305 = CALENDAR_DATE ( 2021, 25, 10 ) ;
#306 = AXIS2_PLACEMENT_3D ( 'NONE', #296, #123, #351 ) ;
#307 = DIRECTION ( 'NONE',  ( 1.000000000000000000, 0.000000000000000000, 0.000000000000000000 ) ) ;
#308 = DIRECTION ( 'NONE',  ( 0.000000000000000000, 0.000000000000000000, 1.000000000000000000 ) ) ;
#309 = APPROVAL_STATUS ( 'not_yet_approved' ) ;
#310 = COORDINATED_UNIVERSAL_TIME_OFFSET ( 9, 0, .AHEAD. ) ;
#311 = ADVANCED_FACE ( 'NONE', ( #272 ), #6, .T. ) ;
#312 = CARTESIAN_POINT ( 'NONE',  ( 6.000000000000000000, 7.347880794884119736E-16, 30.00000000000000000 ) ) ;
#313 = AXIS2_PLACEMENT_3D ( 'NONE', #13, #88, #119 ) ;
#314 = DIRECTION ( 'NONE',  ( 0.000000000000000000, 0.000000000000000000, 1.000000000000000000 ) ) ;
#315 = EDGE_LOOP ( 'NONE', ( #347, #230, #137, #150 ) ) ;
#316 = EDGE_LOOP ( 'NONE', ( #239, #39, #20, #324 ) ) ;
#317 = DIRECTION ( 'NONE',  ( 0.000000000000000000, 0.000000000000000000, 1.000000000000000000 ) ) ;
#318 = DIRECTION ( 'NONE',  ( 0.000000000000000000, 0.000000000000000000, 1.000000000000000000 ) ) ;
#319 = DIRECTION ( 'NONE',  ( 0.000000000000000000, 0.000000000000000000, 1.000000000000000000 ) ) ;
#320 = DIRECTION ( 'NONE',  ( 0.000000000000000000, 0.000000000000000000, 1.000000000000000000 ) ) ;
#321 = AXIS2_PLACEMENT_3D ( 'NONE', #288, #320, #142 ) ;
#322 = DIRECTION ( 'NONE',  ( 1.000000000000000000, 0.000000000000000000, 0.000000000000000000 ) ) ;
#323 = PLANE ( 'NONE',  #70 ) ;
#324 = ORIENTED_EDGE ( 'NONE', *, *, #155, .F. ) ;
#325 = EDGE_LOOP ( 'NONE', ( #3, #118 ) ) ;
#326 = ADVANCED_FACE ( 'NONE', ( #38 ), #323, .T. ) ;
#327 =( GEOMETRIC_REPRESENTATION_CONTEXT ( 3 ) GLOBAL_UNCERTAINTY_ASSIGNED_CONTEXT ( ( #337 ) ) GLOBAL_UNIT_ASSIGNED_CONTEXT ( ( #127, #49, #266 ) ) REPRESENTATION_CONTEXT ( 'NONE', 'WORKASPACE' ) );
#328 = ORIENTED_EDGE ( 'NONE', *, *, #69, .F. ) ;
#329 = ADVANCED_FACE ( 'NONE', ( #268 ), #353, .T. ) ;
#330 = CIRCLE ( 'NONE', #198, 3.690598923241485085 ) ;
#331 = SECURITY_CLASSIFICATION_LEVEL ( 'unclassified' ) ;
#332 = DIRECTION ( 'NONE',  ( 0.000000000000000000, 0.000000000000000000, 1.000000000000000000 ) ) ;
#333 = APPROVAL_ROLE ( '' ) ;
#334 = CC_DESIGN_PERSON_AND_ORGANIZATION_ASSIGNMENT ( #204, #222, ( #31 ) ) ;
#335 = EDGE_CURVE ( 'NONE', #45, #12, #184, .T. ) ;
#336 = DATE_AND_TIME ( #27, #132 ) ;
#337 = UNCERTAINTY_MEASURE_WITH_UNIT (LENGTH_MEASURE( 1.000000000000000082E-05 ), #127, 'distance_accuracy_value', 'NONE');
#338 = CARTESIAN_POINT ( 'NONE',  ( -3.690598923241485085, 0.000000000000000000, 34.00000000000000000 ) ) ;
#339 = AXIS2_PLACEMENT_3D ( 'NONE', #193, #188, #271 ) ;
#340 = DATE_AND_TIME ( #305, #92 ) ;
#341 = DATE_AND_TIME ( #77, #111 ) ;
#342 = CARTESIAN_POINT ( 'NONE',  ( 0.000000000000000000, 0.000000000000000000, 34.00000000000000000 ) ) ;
#343 = AXIS2_PLACEMENT_3D ( 'NONE', #187, #301, #307 ) ;
#344 = FACE_OUTER_BOUND ( 'NONE', #126, .T. ) ;
#345 = CARTESIAN_POINT ( 'NONE',  ( 0.000000000000000000, 0.000000000000000000, 30.00000000000000000 ) ) ;
#346 = DIRECTION ( 'NONE',  ( 1.000000000000000000, 0.000000000000000000, 0.000000000000000000 ) ) ;
#347 = ORIENTED_EDGE ( 'NONE', *, *, #60, .F. ) ;
#348 = ORIENTED_EDGE ( 'NONE', *, *, #246, .F. ) ;
#349 = ORIENTED_EDGE ( 'NONE', *, *, #138, .F. ) ;
#350 = CIRCLE ( 'NONE', #35, 2.500000000000000000 ) ;
#351 = DIRECTION ( 'NONE',  ( 1.000000000000000000, 0.000000000000000000, 0.000000000000000000 ) ) ;
#352 = DIRECTION ( 'NONE',  ( 0.4999999999999998890, 0.000000000000000000, 0.8660254037844387076 ) ) ;
#353 = CYLINDRICAL_SURFACE ( 'NONE', #174, 6.000000000000000000 ) ;
#354 = ORIENTED_EDGE ( 'NONE', *, *, #233, .F. ) ;
#355 = ADVANCED_FACE ( 'NONE', ( #67 ), #79, .T. ) ;
ENDSEC;
END-ISO-10303-21;
