ISO-10303-21;
HEADER;
FILE_DESCRIPTION (( 'STEP AP203' ),
    '1' );
FILE_NAME ('bj300-10032.STEP',
    '2021-10-24T23:51:05',
    ( '' ),
    ( '' ),
    'SwSTEP 2.0',
    'SolidWorks 2020',
    '' );
FILE_SCHEMA (( 'CONFIG_CONTROL_DESIGN' ));
ENDSEC;

DATA;
#1 = DIRECTION ( 'NONE',  ( 0.000000000000000000, 0.000000000000000000, 1.000000000000000000 ) ) ;
#2 = PRODUCT_DEFINITION_SHAPE ( 'NONE', 'NONE',  #35 ) ;
#3 = CARTESIAN_POINT ( 'NONE',  ( 5.500000000000000000, 0.000000000000000000, 40.00000000000000000 ) ) ;
#4 = ORIENTED_EDGE ( 'NONE', *, *, #31, .F. ) ;
#5 = EDGE_LOOP ( 'NONE', ( #9, #10 ) ) ;
#6 = CIRCLE ( 'NONE', #64, 16.00000000000000000 ) ;
#7 = FACE_BOUND ( 'NONE', #86, .T. ) ;
#8 = EDGE_CURVE ( 'NONE', #229, #58, #24, .T. ) ;
#9 = ORIENTED_EDGE ( 'NONE', *, *, #89, .F. ) ;
#10 = ORIENTED_EDGE ( 'NONE', *, *, #171, .F. ) ;
#11 = LINE ( 'NONE', #88, #133 ) ;
#12 = CYLINDRICAL_SURFACE ( 'NONE', #268, 9.000000000000000000 ) ;
#13 = LOCAL_TIME ( 8, 51, 5.000000000000000000, #153 ) ;
#14 = FACE_OUTER_BOUND ( 'NONE', #185, .T. ) ;
#15 = DIRECTION ( 'NONE',  ( 0.000000000000000000, 0.000000000000000000, 1.000000000000000000 ) ) ;
#16 = CARTESIAN_POINT ( 'NONE',  ( -5.500000000000000000, 6.735557395310442023E-16, 9.000000000000000000 ) ) ;
#17 = AXIS2_PLACEMENT_3D ( 'NONE', #218, #179, #249 ) ;
#18 = CARTESIAN_POINT ( 'NONE',  ( -9.000000000000000000, 1.102182119232617714E-15, 9.000000000000000000 ) ) ;
#19 = CC_DESIGN_PERSON_AND_ORGANIZATION_ASSIGNMENT ( #311, #216, ( #239 ) ) ;
#20 = PERSON_AND_ORGANIZATION ( #323, #187 ) ;
#21 = CALENDAR_DATE ( 2021, 25, 10 ) ;
#22 = PLANE ( 'NONE',  #17 ) ;
#23 = DIRECTION ( 'NONE',  ( 0.000000000000000000, 0.000000000000000000, -1.000000000000000000 ) ) ;
#24 = CIRCLE ( 'NONE', #52, 16.00000000000000000 ) ;
#25 = CC_DESIGN_PERSON_AND_ORGANIZATION_ASSIGNMENT ( #223, #329, ( #173 ) ) ;
#26 = VERTEX_POINT ( 'NONE', #241 ) ;
#27 = CARTESIAN_POINT ( 'NONE',  ( 0.000000000000000000, 0.000000000000000000, 9.000000000000000000 ) ) ;
#28 = EDGE_LOOP ( 'NONE', ( #245, #60 ) ) ;
#29 = DIRECTION ( 'NONE',  ( 1.000000000000000000, 0.000000000000000000, 0.000000000000000000 ) ) ;
#30 = AXIS2_PLACEMENT_3D ( 'NONE', #256, #135, #309 ) ;
#31 = EDGE_CURVE ( 'NONE', #294, #212, #11, .T. ) ;
#32 = FACE_OUTER_BOUND ( 'NONE', #85, .T. ) ;
#33 = VERTEX_POINT ( 'NONE', #242 ) ;
#34 = DIRECTION ( 'NONE',  ( 0.000000000000000000, 0.000000000000000000, 1.000000000000000000 ) ) ;
#35 = PRODUCT_DEFINITION ( 'UNKNOWN', '', #173, #208 ) ;
#36 = DIRECTION ( 'NONE',  ( 1.000000000000000000, 0.000000000000000000, 0.000000000000000000 ) ) ;
#37 = EDGE_LOOP ( 'NONE', ( #131, #158 ) ) ;
#38 = APPROVAL_PERSON_ORGANIZATION ( #313, #68, #319 ) ;
#39 = DATE_TIME_ROLE ( 'classification_date' ) ;
#40 = CARTESIAN_POINT ( 'NONE',  ( 0.000000000000000000, 0.000000000000000000, 40.00000000000000000 ) ) ;
#41 = PERSON_AND_ORGANIZATION ( #323, #187 ) ;
#42 = FACE_BOUND ( 'NONE', #5, .T. ) ;
#43 = DATE_TIME_ROLE ( 'creation_date' ) ;
#44 = CARTESIAN_POINT ( 'NONE',  ( 5.500000000000000000, 0.000000000000000000, 0.000000000000000000 ) ) ;
#45 = ADVANCED_FACE ( 'NONE', ( #118, #167 ), #172, .F. ) ;
#46 = APPROVAL_ROLE ( '' ) ;
#47 = DIRECTION ( 'NONE',  ( 1.000000000000000000, 0.000000000000000000, 0.000000000000000000 ) ) ;
#48 = CALENDAR_DATE ( 2021, 25, 10 ) ;
#49 = CARTESIAN_POINT ( 'NONE',  ( -9.000000000000000000, 1.102182119232617714E-15, 40.00000000000000000 ) ) ;
#50 = ADVANCED_FACE ( 'NONE', ( #192 ), #12, .F. ) ;
#51 = CARTESIAN_POINT ( 'NONE',  ( 9.000000000000000000, 0.000000000000000000, 40.00000000000000000 ) ) ;
#52 = AXIS2_PLACEMENT_3D ( 'NONE', #314, #34, #36 ) ;
#53 = DIRECTION ( 'NONE',  ( 1.000000000000000000, 0.000000000000000000, 0.000000000000000000 ) ) ;
#54 = ORIENTED_EDGE ( 'NONE', *, *, #232, .F. ) ;
#55 = ORIENTED_EDGE ( 'NONE', *, *, #280, .T. ) ;
#56 = CARTESIAN_POINT ( 'NONE',  ( -5.500000000000000000, 6.735557395310442023E-16, 0.000000000000000000 ) ) ;
#57 = DIRECTION ( 'NONE',  ( 0.000000000000000000, 0.000000000000000000, 1.000000000000000000 ) ) ;
#58 = VERTEX_POINT ( 'NONE', #116 ) ;
#59 = DIRECTION ( 'NONE',  ( 1.000000000000000000, 0.000000000000000000, 0.000000000000000000 ) ) ;
#60 = ORIENTED_EDGE ( 'NONE', *, *, #259, .T. ) ;
#61 = AXIS2_PLACEMENT_3D ( 'NONE', #182, #184, #53 ) ;
#62 = DIRECTION ( 'NONE',  ( 1.000000000000000000, 0.000000000000000000, 0.000000000000000000 ) ) ;
#63 = ORIENTED_EDGE ( 'NONE', *, *, #8, .T. ) ;
#64 = AXIS2_PLACEMENT_3D ( 'NONE', #175, #222, #297 ) ;
#65 = APPROVAL_STATUS ( 'not_yet_approved' ) ;
#66 = DIRECTION ( 'NONE',  ( 0.000000000000000000, 0.000000000000000000, 1.000000000000000000 ) ) ;
#67 = DATE_AND_TIME ( #21, #225 ) ;
#68 = APPROVAL ( #240, 'UNSPECIFIED' ) ;
#69 = LINE ( 'NONE', #96, #156 ) ;
#70 = DATE_AND_TIME ( #247, #292 ) ;
#71 = CARTESIAN_POINT ( 'NONE',  ( 0.000000000000000000, 0.000000000000000000, 32.00000000000000000 ) ) ;
#72 = CIRCLE ( 'NONE', #261, 5.500000000000000000 ) ;
#73 = SHAPE_DEFINITION_REPRESENTATION ( #2, #253 ) ;
#74 = CARTESIAN_POINT ( 'NONE',  ( 0.000000000000000000, 0.000000000000000000, 9.000000000000000000 ) ) ;
#75 = CARTESIAN_POINT ( 'NONE',  ( 0.000000000000000000, 0.000000000000000000, 40.00000000000000000 ) ) ;
#76 = CC_DESIGN_APPROVAL ( #115, ( #173 ) ) ;
#77 = ADVANCED_FACE ( 'NONE', ( #273 ), #194, .F. ) ;
#78 = ORIENTED_EDGE ( 'NONE', *, *, #280, .F. ) ;
#79 = CARTESIAN_POINT ( 'NONE',  ( 9.000000000000000000, 0.000000000000000000, 9.000000000000000000 ) ) ;
#80 = EDGE_LOOP ( 'NONE', ( #213, #84, #286, #282 ) ) ;
#81 = CC_DESIGN_APPROVAL ( #68, ( #35 ) ) ;
#82 = CC_DESIGN_PERSON_AND_ORGANIZATION_ASSIGNMENT ( #41, #221, ( #140 ) ) ;
#83 = CARTESIAN_POINT ( 'NONE',  ( 0.000000000000000000, 0.000000000000000000, 0.000000000000000000 ) ) ;
#84 = ORIENTED_EDGE ( 'NONE', *, *, #203, .F. ) ;
#85 = EDGE_LOOP ( 'NONE', ( #4, #312, #142, #55 ) ) ;
#86 = EDGE_LOOP ( 'NONE', ( #78, #206 ) ) ;
#87 = CIRCLE ( 'NONE', #278, 5.500000000000000000 ) ;
#88 = CARTESIAN_POINT ( 'NONE',  ( -5.500000000000000000, 6.735557395310442023E-16, 40.00000000000000000 ) ) ;
#89 = EDGE_CURVE ( 'NONE', #304, #161, #287, .T. ) ;
#90 = CARTESIAN_POINT ( 'NONE',  ( 0.000000000000000000, 0.000000000000000000, 40.00000000000000000 ) ) ;
#91 = DIRECTION ( 'NONE',  ( 0.000000000000000000, 0.000000000000000000, 1.000000000000000000 ) ) ;
#92 = CIRCLE ( 'NONE', #61, 5.500000000000000000 ) ;
#93 = ADVANCED_FACE ( 'NONE', ( #14 ), #266, .F. ) ;
#94 = CARTESIAN_POINT ( 'NONE',  ( 0.000000000000000000, 0.000000000000000000, 9.000000000000000000 ) ) ;
#95 = APPROVAL_DATE_TIME ( #122, #115 ) ;
#96 = CARTESIAN_POINT ( 'NONE',  ( -16.00000000000000000, 1.959434878635765131E-15, 40.00000000000000000 ) ) ;
#97 = COORDINATED_UNIVERSAL_TIME_OFFSET ( 9, 0, .AHEAD. ) ;
#98 = FACE_OUTER_BOUND ( 'NONE', #190, .T. ) ;
#99 = CIRCLE ( 'NONE', #110, 9.000000000000000000 ) ;
#100 = DIRECTION ( 'NONE',  ( 1.000000000000000000, 0.000000000000000000, 0.000000000000000000 ) ) ;
#101 = CYLINDRICAL_SURFACE ( 'NONE', #195, 16.00000000000000000 ) ;
#102 = DIRECTION ( 'NONE',  ( -1.000000000000000000, 0.000000000000000000, 0.000000000000000000 ) ) ;
#103 = ORIENTED_EDGE ( 'NONE', *, *, #143, .T. ) ;
#104 = VECTOR ( 'NONE', #303, 1000.000000000000000 ) ;
#105 = ORIENTED_EDGE ( 'NONE', *, *, #327, .T. ) ;
#106 = VERTEX_POINT ( 'NONE', #109 ) ;
#107 = DIRECTION ( 'NONE',  ( 1.000000000000000000, 0.000000000000000000, 0.000000000000000000 ) ) ;
#108 = ORIENTED_EDGE ( 'NONE', *, *, #198, .T. ) ;
#109 = CARTESIAN_POINT ( 'NONE',  ( 9.000000000000000000, 0.000000000000000000, 9.000000000000000000 ) ) ;
#110 = AXIS2_PLACEMENT_3D ( 'NONE', #74, #66, #177 ) ;
#111 = APPLICATION_PROTOCOL_DEFINITION ( 'international standard', 'config_control_design', 1994, #262 ) ;
#112 = ORIENTED_EDGE ( 'NONE', *, *, #186, .F. ) ;
#113 = COORDINATED_UNIVERSAL_TIME_OFFSET ( 9, 0, .AHEAD. ) ;
#114 = ORIENTED_EDGE ( 'NONE', *, *, #146, .F. ) ;
#115 = APPROVAL ( #150, 'UNSPECIFIED' ) ;
#116 = CARTESIAN_POINT ( 'NONE',  ( 16.00000000000000000, 0.000000000000000000, 32.00000000000000000 ) ) ;
#117 = APPROVAL_PERSON_ORGANIZATION ( #20, #115, #46 ) ;
#118 = FACE_OUTER_BOUND ( 'NONE', #37, .T. ) ;
#119 = COORDINATED_UNIVERSAL_TIME_OFFSET ( 9, 0, .AHEAD. ) ;
#120 = CARTESIAN_POINT ( 'NONE',  ( 0.000000000000000000, 0.000000000000000000, 32.00000000000000000 ) ) ;
#121 = EDGE_CURVE ( 'NONE', #26, #33, #139, .T. ) ;
#122 = DATE_AND_TIME ( #48, #13 ) ;
#123 = LINE ( 'NONE', #51, #250 ) ;
#124 = AXIS2_PLACEMENT_3D ( 'NONE', #138, #272, #215 ) ;
#125 = CALENDAR_DATE ( 2021, 25, 10 ) ;
#126 = DIRECTION ( 'NONE',  ( 0.000000000000000000, 0.000000000000000000, 1.000000000000000000 ) ) ;
#127 = DIRECTION ( 'NONE',  ( 1.000000000000000000, 0.000000000000000000, 0.000000000000000000 ) ) ;
#128 = PERSON_AND_ORGANIZATION_ROLE ( 'creator' ) ;
#129 = CARTESIAN_POINT ( 'NONE',  ( 0.000000000000000000, 0.000000000000000000, 0.000000000000000000 ) ) ;
#130 = AXIS2_PLACEMENT_3D ( 'NONE', #40, #147, #246 ) ;
#131 = ORIENTED_EDGE ( 'NONE', *, *, #121, .F. ) ;
#132 = DIRECTION ( 'NONE',  ( 0.000000000000000000, 0.000000000000000000, 1.000000000000000000 ) ) ;
#133 = VECTOR ( 'NONE', #290, 1000.000000000000000 ) ;
#134 = ADVANCED_FACE ( 'NONE', ( #98 ), #295, .T. ) ;
#135 = DIRECTION ( 'NONE',  ( 0.000000000000000000, 0.000000000000000000, 1.000000000000000000 ) ) ;
#136 = ORIENTED_EDGE ( 'NONE', *, *, #259, .F. ) ;
#137 = DIRECTION ( 'NONE',  ( 0.000000000000000000, 0.000000000000000000, 1.000000000000000000 ) ) ;
#138 = CARTESIAN_POINT ( 'NONE',  ( 0.000000000000000000, 0.000000000000000000, 40.00000000000000000 ) ) ;
#139 = CIRCLE ( 'NONE', #291, 16.00000000000000000 ) ;
#140 = SECURITY_CLASSIFICATION ( '', '', #202 ) ;
#141 = MECHANICAL_CONTEXT ( 'NONE', #243, 'mechanical' ) ;
#142 = ORIENTED_EDGE ( 'NONE', *, *, #308, .T. ) ;
#143 = EDGE_CURVE ( 'NONE', #144, #161, #252, .T. ) ;
#144 = VERTEX_POINT ( 'NONE', #18 ) ;
#145 = AXIS2_PLACEMENT_3D ( 'NONE', #154, #126, #127 ) ;
#146 = EDGE_CURVE ( 'NONE', #26, #58, #220, .T. ) ;
#147 = DIRECTION ( 'NONE',  ( 0.000000000000000000, 0.000000000000000000, 1.000000000000000000 ) ) ;
#148 = DATE_AND_TIME ( #152, #151 ) ;
#149 = FACE_OUTER_BOUND ( 'NONE', #211, .T. ) ;
#150 = APPROVAL_STATUS ( 'not_yet_approved' ) ;
#151 = LOCAL_TIME ( 8, 51, 5.000000000000000000, #97 ) ;
#152 = CALENDAR_DATE ( 2021, 25, 10 ) ;
#153 = COORDINATED_UNIVERSAL_TIME_OFFSET ( 9, 0, .AHEAD. ) ;
#154 = CARTESIAN_POINT ( 'NONE',  ( 0.000000000000000000, 0.000000000000000000, 40.00000000000000000 ) ) ;
#155 = DIRECTION ( 'NONE',  ( 0.000000000000000000, 0.000000000000000000, 1.000000000000000000 ) ) ;
#156 = VECTOR ( 'NONE', #274, 1000.000000000000000 ) ;
#157 = EDGE_CURVE ( 'NONE', #33, #26, #6, .T. ) ;
#158 = ORIENTED_EDGE ( 'NONE', *, *, #157, .F. ) ;
#159 = CARTESIAN_POINT ( 'NONE',  ( 0.000000000000000000, 0.000000000000000000, 9.000000000000000000 ) ) ;
#160 = EDGE_LOOP ( 'NONE', ( #270, #209, #257, #307 ) ) ;
#161 = VERTEX_POINT ( 'NONE', #281 ) ;
#162 = CIRCLE ( 'NONE', #317, 9.000000000000000000 ) ;
#163 = ORIENTED_EDGE ( 'NONE', *, *, #308, .F. ) ;
#164 = CARTESIAN_POINT ( 'NONE',  ( 0.000000000000000000, 0.000000000000000000, 0.000000000000000000 ) ) ;
#165 =( LENGTH_UNIT ( ) NAMED_UNIT ( * ) SI_UNIT ( .MILLI., .METRE. ) );
#166 = VECTOR ( 'NONE', #91, 1000.000000000000000 ) ;
#167 = FACE_BOUND ( 'NONE', #28, .T. ) ;
#168 = EDGE_CURVE ( 'NONE', #106, #304, #123, .T. ) ;
#169 = DIRECTION ( 'NONE',  ( 1.000000000000000000, 0.000000000000000000, 0.000000000000000000 ) ) ;
#170 = DIRECTION ( 'NONE',  ( 0.000000000000000000, 0.000000000000000000, 1.000000000000000000 ) ) ;
#171 = EDGE_CURVE ( 'NONE', #161, #304, #162, .T. ) ;
#172 = PLANE ( 'NONE',  #178 ) ;
#173 = PRODUCT_DEFINITION_FORMATION_WITH_SPECIFIED_SOURCE ( 'ANY', '', #239, .NOT_KNOWN. ) ;
#174 = DIRECTION ( 'NONE',  ( 1.000000000000000000, 0.000000000000000000, 0.000000000000000000 ) ) ;
#175 = CARTESIAN_POINT ( 'NONE',  ( 0.000000000000000000, 0.000000000000000000, 0.000000000000000000 ) ) ;
#176 = PERSON_AND_ORGANIZATION ( #323, #187 ) ;
#177 = DIRECTION ( 'NONE',  ( 1.000000000000000000, 0.000000000000000000, 0.000000000000000000 ) ) ;
#178 = AXIS2_PLACEMENT_3D ( 'NONE', #289, #316, #169 ) ;
#179 = DIRECTION ( 'NONE',  ( 0.000000000000000000, 0.000000000000000000, -1.000000000000000000 ) ) ;
#180 = DIRECTION ( 'NONE',  ( 1.000000000000000000, 0.000000000000000000, 0.000000000000000000 ) ) ;
#181 = EDGE_LOOP ( 'NONE', ( #54, #103, #285, #301 ) ) ;
#182 = CARTESIAN_POINT ( 'NONE',  ( 0.000000000000000000, 0.000000000000000000, 0.000000000000000000 ) ) ;
#183 = ORIENTED_EDGE ( 'NONE', *, *, #186, .T. ) ;
#184 = DIRECTION ( 'NONE',  ( 0.000000000000000000, 0.000000000000000000, 1.000000000000000000 ) ) ;
#185 = EDGE_LOOP ( 'NONE', ( #136, #205, #105, #163 ) ) ;
#186 = EDGE_CURVE ( 'NONE', #58, #229, #255, .T. ) ;
#187 = ORGANIZATION ( 'UNSPECIFIED', 'UNSPECIFIED', '' ) ;
#188 = VERTEX_POINT ( 'NONE', #324 ) ;
#189 = ORIENTED_EDGE ( 'NONE', *, *, #232, .T. ) ;
#190 = EDGE_LOOP ( 'NONE', ( #264, #108, #112, #114 ) ) ;
#191 = AXIS2_PLACEMENT_3D ( 'NONE', #120, #196, #174 ) ;
#192 = FACE_OUTER_BOUND ( 'NONE', #181, .T. ) ;
#193 = DIRECTION ( 'NONE',  ( 0.000000000000000000, 0.000000000000000000, 1.000000000000000000 ) ) ;
#194 = CYLINDRICAL_SURFACE ( 'NONE', #124, 9.000000000000000000 ) ;
#195 = AXIS2_PLACEMENT_3D ( 'NONE', #75, #204, #300 ) ;
#196 = DIRECTION ( 'NONE',  ( 0.000000000000000000, 0.000000000000000000, 1.000000000000000000 ) ) ;
#197 = APPROVAL_DATE_TIME ( #67, #68 ) ;
#198 = EDGE_CURVE ( 'NONE', #33, #229, #69, .T. ) ;
#199 = PERSON_AND_ORGANIZATION_ROLE ( 'creator' ) ;
#200 = AXIS2_PLACEMENT_3D ( 'NONE', #159, #132, #29 ) ;
#201 = CC_DESIGN_APPROVAL ( #236, ( #140 ) ) ;
#202 = SECURITY_CLASSIFICATION_LEVEL ( 'unclassified' ) ;
#203 = EDGE_CURVE ( 'NONE', #106, #144, #99, .T. ) ;
#204 = DIRECTION ( 'NONE',  ( 0.000000000000000000, 0.000000000000000000, 1.000000000000000000 ) ) ;
#205 = ORIENTED_EDGE ( 'NONE', *, *, #31, .T. ) ;
#206 = ORIENTED_EDGE ( 'NONE', *, *, #327, .F. ) ;
#207 = CIRCLE ( 'NONE', #230, 9.000000000000000000 ) ;
#208 = DESIGN_CONTEXT ( 'detailed design', #262, 'design' ) ;
#209 = ORIENTED_EDGE ( 'NONE', *, *, #157, .T. ) ;
#210 = CARTESIAN_POINT ( 'NONE',  ( 9.000000000000000000, 0.000000000000000000, 32.00000000000000000 ) ) ;
#211 = EDGE_LOOP ( 'NONE', ( #183, #63 ) ) ;
#212 = VERTEX_POINT ( 'NONE', #16 ) ;
#213 = ORIENTED_EDGE ( 'NONE', *, *, #143, .F. ) ;
#214 = CLOSED_SHELL ( 'NONE', ( #50, #134, #93, #288, #263, #45, #315, #217, #77 ) ) ;
#215 = DIRECTION ( 'NONE',  ( 1.000000000000000000, 0.000000000000000000, 0.000000000000000000 ) ) ;
#216 = PERSON_AND_ORGANIZATION_ROLE ( 'design_owner' ) ;
#217 = ADVANCED_FACE ( 'NONE', ( #42, #149 ), #22, .F. ) ;
#218 = CARTESIAN_POINT ( 'NONE',  ( 16.00000000000000000, 0.000000000000000000, 32.00000000000000000 ) ) ;
#219 = VECTOR ( 'NONE', #155, 1000.000000000000000 ) ;
#220 = LINE ( 'NONE', #322, #219 ) ;
#221 = PERSON_AND_ORGANIZATION_ROLE ( 'classification_officer' ) ;
#222 = DIRECTION ( 'NONE',  ( 0.000000000000000000, 0.000000000000000000, 1.000000000000000000 ) ) ;
#223 = PERSON_AND_ORGANIZATION ( #323, #187 ) ;
#224 = CC_DESIGN_PERSON_AND_ORGANIZATION_ASSIGNMENT ( #251, #128, ( #35 ) ) ;
#225 = LOCAL_TIME ( 8, 51, 5.000000000000000000, #113 ) ;
#226 = APPROVAL_PERSON_ORGANIZATION ( #176, #236, #277 ) ;
#227 = FACE_OUTER_BOUND ( 'NONE', #160, .T. ) ;
#228 = LINE ( 'NONE', #3, #104 ) ;
#229 = VERTEX_POINT ( 'NONE', #279 ) ;
#230 = AXIS2_PLACEMENT_3D ( 'NONE', #94, #276, #254 ) ;
#231 = CC_DESIGN_SECURITY_CLASSIFICATION ( #140, ( #173 ) ) ;
#232 = EDGE_CURVE ( 'NONE', #144, #106, #207, .T. ) ;
#233 = PLANE ( 'NONE',  #299 ) ;
#234 =( NAMED_UNIT ( * ) PLANE_ANGLE_UNIT ( ) SI_UNIT ( $, .RADIAN. ) );
#235 = EDGE_LOOP ( 'NONE', ( #284, #189 ) ) ;
#236 = APPROVAL ( #65, 'UNSPECIFIED' ) ;
#237 = APPLICATION_PROTOCOL_DEFINITION ( 'international standard', 'config_control_design', 1994, #243 ) ;
#238 = VERTEX_POINT ( 'NONE', #44 ) ;
#239 = PRODUCT ( 'bj300-10032', 'bj300-10032', '', ( #141 ) ) ;
#240 = APPROVAL_STATUS ( 'not_yet_approved' ) ;
#241 = CARTESIAN_POINT ( 'NONE',  ( 16.00000000000000000, 0.000000000000000000, 0.000000000000000000 ) ) ;
#242 = CARTESIAN_POINT ( 'NONE',  ( -16.00000000000000000, 1.959434878635765131E-15, 0.000000000000000000 ) ) ;
#243 = APPLICATION_CONTEXT ( 'configuration controlled 3d designs of mechanical parts and assemblies' ) ;
#244 = AXIS2_PLACEMENT_3D ( 'NONE', #83, #137, #265 ) ;
#245 = ORIENTED_EDGE ( 'NONE', *, *, #320, .T. ) ;
#246 = DIRECTION ( 'NONE',  ( 1.000000000000000000, 0.000000000000000000, 0.000000000000000000 ) ) ;
#247 = CALENDAR_DATE ( 2021, 25, 10 ) ;
#248 = CC_DESIGN_DATE_AND_TIME_ASSIGNMENT ( #325, #43, ( #35 ) ) ;
#249 = DIRECTION ( 'NONE',  ( -1.000000000000000000, 0.000000000000000000, 0.000000000000000000 ) ) ;
#250 = VECTOR ( 'NONE', #15, 1000.000000000000000 ) ;
#251 = PERSON_AND_ORGANIZATION ( #323, #187 ) ;
#252 = LINE ( 'NONE', #49, #166 ) ;
#253 = ADVANCED_BREP_SHAPE_REPRESENTATION ( 'bj300-10032', ( #321, #244 ), #267 ) ;
#254 = DIRECTION ( 'NONE',  ( 1.000000000000000000, 0.000000000000000000, 0.000000000000000000 ) ) ;
#255 = CIRCLE ( 'NONE', #191, 16.00000000000000000 ) ;
#256 = CARTESIAN_POINT ( 'NONE',  ( 0.000000000000000000, 0.000000000000000000, 40.00000000000000000 ) ) ;
#257 = ORIENTED_EDGE ( 'NONE', *, *, #146, .T. ) ;
#258 = FACE_OUTER_BOUND ( 'NONE', #235, .T. ) ;
#259 = EDGE_CURVE ( 'NONE', #294, #238, #87, .T. ) ;
#260 = CYLINDRICAL_SURFACE ( 'NONE', #30, 5.500000000000000000 ) ;
#261 = AXIS2_PLACEMENT_3D ( 'NONE', #27, #57, #107 ) ;
#262 = APPLICATION_CONTEXT ( 'configuration controlled 3d designs of mechanical parts and assemblies' ) ;
#263 = ADVANCED_FACE ( 'NONE', ( #32 ), #260, .F. ) ;
#264 = ORIENTED_EDGE ( 'NONE', *, *, #121, .T. ) ;
#265 = DIRECTION ( 'NONE',  ( 1.000000000000000000, 0.000000000000000000, 0.000000000000000000 ) ) ;
#266 = CYLINDRICAL_SURFACE ( 'NONE', #130, 5.500000000000000000 ) ;
#267 =( GEOMETRIC_REPRESENTATION_CONTEXT ( 3 ) GLOBAL_UNCERTAINTY_ASSIGNED_CONTEXT ( ( #306 ) ) GLOBAL_UNIT_ASSIGNED_CONTEXT ( ( #165, #234, #269 ) ) REPRESENTATION_CONTEXT ( 'NONE', 'WORKASPACE' ) );
#268 = AXIS2_PLACEMENT_3D ( 'NONE', #90, #170, #59 ) ;
#269 =( NAMED_UNIT ( * ) SI_UNIT ( $, .STERADIAN. ) SOLID_ANGLE_UNIT ( ) );
#270 = ORIENTED_EDGE ( 'NONE', *, *, #198, .F. ) ;
#271 = PRODUCT_RELATED_PRODUCT_CATEGORY ( 'detail', '', ( #239 ) ) ;
#272 = DIRECTION ( 'NONE',  ( 0.000000000000000000, 0.000000000000000000, 1.000000000000000000 ) ) ;
#273 = FACE_OUTER_BOUND ( 'NONE', #80, .T. ) ;
#274 = DIRECTION ( 'NONE',  ( 0.000000000000000000, 0.000000000000000000, 1.000000000000000000 ) ) ;
#275 = COORDINATED_UNIVERSAL_TIME_OFFSET ( 9, 0, .AHEAD. ) ;
#276 = DIRECTION ( 'NONE',  ( 0.000000000000000000, 0.000000000000000000, 1.000000000000000000 ) ) ;
#277 = APPROVAL_ROLE ( '' ) ;
#278 = AXIS2_PLACEMENT_3D ( 'NONE', #129, #1, #100 ) ;
#279 = CARTESIAN_POINT ( 'NONE',  ( -16.00000000000000000, 1.959434878635765131E-15, 32.00000000000000000 ) ) ;
#280 = EDGE_CURVE ( 'NONE', #188, #212, #72, .T. ) ;
#281 = CARTESIAN_POINT ( 'NONE',  ( -9.000000000000000000, 1.102182119232617714E-15, 32.00000000000000000 ) ) ;
#282 = ORIENTED_EDGE ( 'NONE', *, *, #89, .T. ) ;
#283 = CIRCLE ( 'NONE', #200, 5.500000000000000000 ) ;
#284 = ORIENTED_EDGE ( 'NONE', *, *, #203, .T. ) ;
#285 = ORIENTED_EDGE ( 'NONE', *, *, #171, .T. ) ;
#286 = ORIENTED_EDGE ( 'NONE', *, *, #168, .T. ) ;
#287 = CIRCLE ( 'NONE', #305, 9.000000000000000000 ) ;
#288 = ADVANCED_FACE ( 'NONE', ( #7, #258 ), #233, .F. ) ;
#289 = CARTESIAN_POINT ( 'NONE',  ( 5.500000000000000000, 0.000000000000000000, 0.000000000000000000 ) ) ;
#290 = DIRECTION ( 'NONE',  ( 0.000000000000000000, 0.000000000000000000, 1.000000000000000000 ) ) ;
#291 = AXIS2_PLACEMENT_3D ( 'NONE', #164, #328, #47 ) ;
#292 = LOCAL_TIME ( 8, 51, 5.000000000000000000, #119 ) ;
#293 = CC_DESIGN_DATE_AND_TIME_ASSIGNMENT ( #70, #39, ( #140 ) ) ;
#294 = VERTEX_POINT ( 'NONE', #56 ) ;
#295 = CYLINDRICAL_SURFACE ( 'NONE', #145, 16.00000000000000000 ) ;
#296 = PERSON_AND_ORGANIZATION ( #323, #187 ) ;
#297 = DIRECTION ( 'NONE',  ( 1.000000000000000000, 0.000000000000000000, 0.000000000000000000 ) ) ;
#298 = APPROVAL_DATE_TIME ( #148, #236 ) ;
#299 = AXIS2_PLACEMENT_3D ( 'NONE', #79, #23, #102 ) ;
#300 = DIRECTION ( 'NONE',  ( 1.000000000000000000, 0.000000000000000000, 0.000000000000000000 ) ) ;
#301 = ORIENTED_EDGE ( 'NONE', *, *, #168, .F. ) ;
#302 = CC_DESIGN_PERSON_AND_ORGANIZATION_ASSIGNMENT ( #296, #199, ( #173 ) ) ;
#303 = DIRECTION ( 'NONE',  ( 0.000000000000000000, 0.000000000000000000, 1.000000000000000000 ) ) ;
#304 = VERTEX_POINT ( 'NONE', #210 ) ;
#305 = AXIS2_PLACEMENT_3D ( 'NONE', #318, #193, #62 ) ;
#306 = UNCERTAINTY_MEASURE_WITH_UNIT (LENGTH_MEASURE( 1.000000000000000082E-05 ), #165, 'distance_accuracy_value', 'NONE');
#307 = ORIENTED_EDGE ( 'NONE', *, *, #8, .F. ) ;
#308 = EDGE_CURVE ( 'NONE', #238, #188, #228, .T. ) ;
#309 = DIRECTION ( 'NONE',  ( 1.000000000000000000, 0.000000000000000000, 0.000000000000000000 ) ) ;
#310 = LOCAL_TIME ( 8, 51, 5.000000000000000000, #275 ) ;
#311 = PERSON_AND_ORGANIZATION ( #323, #187 ) ;
#312 = ORIENTED_EDGE ( 'NONE', *, *, #320, .F. ) ;
#313 = PERSON_AND_ORGANIZATION ( #323, #187 ) ;
#314 = CARTESIAN_POINT ( 'NONE',  ( 0.000000000000000000, 0.000000000000000000, 32.00000000000000000 ) ) ;
#315 = ADVANCED_FACE ( 'NONE', ( #227 ), #101, .T. ) ;
#316 = DIRECTION ( 'NONE',  ( 0.000000000000000000, 0.000000000000000000, 1.000000000000000000 ) ) ;
#317 = AXIS2_PLACEMENT_3D ( 'NONE', #71, #326, #180 ) ;
#318 = CARTESIAN_POINT ( 'NONE',  ( 0.000000000000000000, 0.000000000000000000, 32.00000000000000000 ) ) ;
#319 = APPROVAL_ROLE ( '' ) ;
#320 = EDGE_CURVE ( 'NONE', #238, #294, #92, .T. ) ;
#321 = MANIFOLD_SOLID_BREP ( 'Imported1', #214 ) ;
#322 = CARTESIAN_POINT ( 'NONE',  ( 16.00000000000000000, 0.000000000000000000, 40.00000000000000000 ) ) ;
#323 = PERSON ( 'UNSPECIFIED', 'UNSPECIFIED', 'UNSPECIFIED', ('UNSPECIFIED'), ('UNSPECIFIED'), ('UNSPECIFIED') ) ;
#324 = CARTESIAN_POINT ( 'NONE',  ( 5.500000000000000000, 0.000000000000000000, 9.000000000000000000 ) ) ;
#325 = DATE_AND_TIME ( #125, #310 ) ;
#326 = DIRECTION ( 'NONE',  ( 0.000000000000000000, 0.000000000000000000, 1.000000000000000000 ) ) ;
#327 = EDGE_CURVE ( 'NONE', #212, #188, #283, .T. ) ;
#328 = DIRECTION ( 'NONE',  ( 0.000000000000000000, 0.000000000000000000, 1.000000000000000000 ) ) ;
#329 = PERSON_AND_ORGANIZATION_ROLE ( 'design_supplier' ) ;
ENDSEC;
END-ISO-10303-21;
