ISO-10303-21;
HEADER;
FILE_DESCRIPTION (( 'STEP AP203' ),
    '1' );
FILE_NAME ('bj300-10063.STEP',
    '2021-10-24T23:51:11',
    ( '' ),
    ( '' ),
    'SwSTEP 2.0',
    'SolidWorks 2020',
    '' );
FILE_SCHEMA (( 'CONFIG_CONTROL_DESIGN' ));
ENDSEC;

DATA;
#1 = ORIENTED_EDGE ( 'NONE', *, *, #99, .T. ) ;
#2 = PRODUCT_RELATED_PRODUCT_CATEGORY ( 'detail', '', ( #263 ) ) ;
#3 = AXIS2_PLACEMENT_3D ( 'NONE', #258, #219, #310 ) ;
#4 = EDGE_LOOP ( 'NONE', ( #10, #191 ) ) ;
#5 = LOCAL_TIME ( 8, 51, 11.00000000000000000, #249 ) ;
#6 = CARTESIAN_POINT ( 'NONE',  ( 16.00000000000000000, 0.000000000000000000, 40.00000000000000000 ) ) ;
#7 = ORIENTED_EDGE ( 'NONE', *, *, #179, .T. ) ;
#8 = EDGE_CURVE ( 'NONE', #31, #160, #302, .T. ) ;
#9 = EDGE_LOOP ( 'NONE', ( #86, #307 ) ) ;
#10 = ORIENTED_EDGE ( 'NONE', *, *, #8, .T. ) ;
#11 = CIRCLE ( 'NONE', #241, 9.000000000000000000 ) ;
#12 = FACE_BOUND ( 'NONE', #133, .T. ) ;
#13 = PRODUCT_DEFINITION_FORMATION_WITH_SPECIFIED_SOURCE ( 'ANY', '', #263, .NOT_KNOWN. ) ;
#14 = CARTESIAN_POINT ( 'NONE',  ( -9.000000000000000000, 1.102182119232617714E-15, 9.000000000000000000 ) ) ;
#15 = PERSON_AND_ORGANIZATION ( #289, #34 ) ;
#16 = DATE_TIME_ROLE ( 'creation_date' ) ;
#17 = CYLINDRICAL_SURFACE ( 'NONE', #207, 9.000000000000000000 ) ;
#18 = CARTESIAN_POINT ( 'NONE',  ( 0.000000000000000000, 0.000000000000000000, 0.000000000000000000 ) ) ;
#19 = CARTESIAN_POINT ( 'NONE',  ( -5.500000000000000000, 6.735557395310442023E-16, 0.000000000000000000 ) ) ;
#20 = EDGE_CURVE ( 'NONE', #111, #57, #54, .T. ) ;
#21 = CARTESIAN_POINT ( 'NONE',  ( 0.000000000000000000, 0.000000000000000000, 0.000000000000000000 ) ) ;
#22 = PERSON_AND_ORGANIZATION ( #289, #34 ) ;
#23 = DIRECTION ( 'NONE',  ( 1.000000000000000000, 0.000000000000000000, 0.000000000000000000 ) ) ;
#24 = AXIS2_PLACEMENT_3D ( 'NONE', #119, #66, #114 ) ;
#25 = ORIENTED_EDGE ( 'NONE', *, *, #212, .F. ) ;
#26 = AXIS2_PLACEMENT_3D ( 'NONE', #63, #82, #275 ) ;
#27 = LINE ( 'NONE', #135, #218 ) ;
#28 = EDGE_LOOP ( 'NONE', ( #112, #276, #262, #274 ) ) ;
#29 = APPROVAL ( #206, 'UNSPECIFIED' ) ;
#30 = CARTESIAN_POINT ( 'NONE',  ( 0.000000000000000000, 0.000000000000000000, 40.00000000000000000 ) ) ;
#31 = VERTEX_POINT ( 'NONE', #94 ) ;
#32 = SHAPE_DEFINITION_REPRESENTATION ( #142, #37 ) ;
#33 = AXIS2_PLACEMENT_3D ( 'NONE', #221, #101, #261 ) ;
#34 = ORGANIZATION ( 'UNSPECIFIED', 'UNSPECIFIED', '' ) ;
#35 = VERTEX_POINT ( 'NONE', #41 ) ;
#36 = PERSON_AND_ORGANIZATION ( #289, #34 ) ;
#37 = ADVANCED_BREP_SHAPE_REPRESENTATION ( 'bj300-10063', ( #50, #253 ), #278 ) ;
#38 = CC_DESIGN_PERSON_AND_ORGANIZATION_ASSIGNMENT ( #315, #107, ( #263 ) ) ;
#39 = DIRECTION ( 'NONE',  ( 1.000000000000000000, 0.000000000000000000, 0.000000000000000000 ) ) ;
#40 = ORIENTED_EDGE ( 'NONE', *, *, #147, .T. ) ;
#41 = CARTESIAN_POINT ( 'NONE',  ( 9.000000000000000000, 0.000000000000000000, 63.00000000000000000 ) ) ;
#42 = AXIS2_PLACEMENT_3D ( 'NONE', #181, #273, #116 ) ;
#43 = CARTESIAN_POINT ( 'NONE',  ( 0.000000000000000000, 0.000000000000000000, 40.00000000000000000 ) ) ;
#44 = ORIENTED_EDGE ( 'NONE', *, *, #148, .F. ) ;
#45 = DIRECTION ( 'NONE',  ( 0.000000000000000000, 0.000000000000000000, 1.000000000000000000 ) ) ;
#46 = VECTOR ( 'NONE', #314, 1000.000000000000000 ) ;
#47 = DIRECTION ( 'NONE',  ( 0.000000000000000000, 0.000000000000000000, 1.000000000000000000 ) ) ;
#48 = CIRCLE ( 'NONE', #235, 9.000000000000000000 ) ;
#49 = DIRECTION ( 'NONE',  ( 1.000000000000000000, 0.000000000000000000, 0.000000000000000000 ) ) ;
#50 = MANIFOLD_SOLID_BREP ( 'Imported1', #96 ) ;
#51 = EDGE_CURVE ( 'NONE', #160, #31, #164, .T. ) ;
#52 =( LENGTH_UNIT ( ) NAMED_UNIT ( * ) SI_UNIT ( .MILLI., .METRE. ) );
#53 = DIRECTION ( 'NONE',  ( 0.000000000000000000, 0.000000000000000000, 1.000000000000000000 ) ) ;
#54 = CIRCLE ( 'NONE', #3, 5.500000000000000000 ) ;
#55 = DIRECTION ( 'NONE',  ( 1.000000000000000000, 0.000000000000000000, 0.000000000000000000 ) ) ;
#56 = DIRECTION ( 'NONE',  ( 0.000000000000000000, 0.000000000000000000, 1.000000000000000000 ) ) ;
#57 = VERTEX_POINT ( 'NONE', #117 ) ;
#58 = PERSON_AND_ORGANIZATION_ROLE ( 'classification_officer' ) ;
#59 = ORIENTED_EDGE ( 'NONE', *, *, #144, .F. ) ;
#60 = FACE_OUTER_BOUND ( 'NONE', #189, .T. ) ;
#61 = APPROVAL_PERSON_ORGANIZATION ( #292, #29, #74 ) ;
#62 = DATE_TIME_ROLE ( 'classification_date' ) ;
#63 = CARTESIAN_POINT ( 'NONE',  ( 0.000000000000000000, 0.000000000000000000, 9.000000000000000000 ) ) ;
#64 = DIRECTION ( 'NONE',  ( 0.000000000000000000, 0.000000000000000000, 1.000000000000000000 ) ) ;
#65 = CC_DESIGN_PERSON_AND_ORGANIZATION_ASSIGNMENT ( #15, #122, ( #13 ) ) ;
#66 = DIRECTION ( 'NONE',  ( 0.000000000000000000, 0.000000000000000000, 1.000000000000000000 ) ) ;
#67 = FACE_OUTER_BOUND ( 'NONE', #84, .T. ) ;
#68 = ORIENTED_EDGE ( 'NONE', *, *, #75, .F. ) ;
#69 = CARTESIAN_POINT ( 'NONE',  ( -5.500000000000000000, 6.735557395310442023E-16, 40.00000000000000000 ) ) ;
#70 = CIRCLE ( 'NONE', #109, 5.500000000000000000 ) ;
#71 = UNCERTAINTY_MEASURE_WITH_UNIT (LENGTH_MEASURE( 1.000000000000000082E-05 ), #52, 'distance_accuracy_value', 'NONE');
#72 = DIRECTION ( 'NONE',  ( 0.000000000000000000, 0.000000000000000000, 1.000000000000000000 ) ) ;
#73 = CARTESIAN_POINT ( 'NONE',  ( 0.000000000000000000, 0.000000000000000000, 0.000000000000000000 ) ) ;
#74 = APPROVAL_ROLE ( '' ) ;
#75 = EDGE_CURVE ( 'NONE', #280, #57, #95, .T. ) ;
#76 = CARTESIAN_POINT ( 'NONE',  ( 0.000000000000000000, 0.000000000000000000, 40.00000000000000000 ) ) ;
#77 = PERSON_AND_ORGANIZATION ( #289, #34 ) ;
#78 = PERSON_AND_ORGANIZATION ( #289, #34 ) ;
#79 = CARTESIAN_POINT ( 'NONE',  ( -9.000000000000000000, 1.102182119232617714E-15, 63.00000000000000000 ) ) ;
#80 = LOCAL_TIME ( 8, 51, 11.00000000000000000, #176 ) ;
#81 = ORIENTED_EDGE ( 'NONE', *, *, #250, .F. ) ;
#82 = DIRECTION ( 'NONE',  ( 0.000000000000000000, 0.000000000000000000, 1.000000000000000000 ) ) ;
#83 = EDGE_LOOP ( 'NONE', ( #81, #256 ) ) ;
#84 = EDGE_LOOP ( 'NONE', ( #68, #59, #40, #240 ) ) ;
#85 = COORDINATED_UNIVERSAL_TIME_OFFSET ( 9, 0, .AHEAD. ) ;
#86 = ORIENTED_EDGE ( 'NONE', *, *, #20, .F. ) ;
#87 = EDGE_CURVE ( 'NONE', #259, #306, #136, .T. ) ;
#88 = CARTESIAN_POINT ( 'NONE',  ( -16.00000000000000000, 1.959434878635765131E-15, 0.000000000000000000 ) ) ;
#89 = ORIENTED_EDGE ( 'NONE', *, *, #87, .T. ) ;
#90 = APPROVAL_DATE_TIME ( #184, #125 ) ;
#91 = ORIENTED_EDGE ( 'NONE', *, *, #148, .T. ) ;
#92 = CIRCLE ( 'NONE', #297, 5.500000000000000000 ) ;
#93 = ORIENTED_EDGE ( 'NONE', *, *, #174, .T. ) ;
#94 = CARTESIAN_POINT ( 'NONE',  ( 16.00000000000000000, 0.000000000000000000, 63.00000000000000000 ) ) ;
#95 = LINE ( 'NONE', #69, #270 ) ;
#96 = CLOSED_SHELL ( 'NONE', ( #286, #155, #158, #279, #322, #296, #195, #168, #113 ) ) ;
#97 = CIRCLE ( 'NONE', #187, 16.00000000000000000 ) ;
#98 = APPROVAL_PERSON_ORGANIZATION ( #22, #326, #290 ) ;
#99 = EDGE_CURVE ( 'NONE', #211, #35, #319, .T. ) ;
#100 = DIRECTION ( 'NONE',  ( 1.000000000000000000, 0.000000000000000000, 0.000000000000000000 ) ) ;
#101 = DIRECTION ( 'NONE',  ( 0.000000000000000000, 0.000000000000000000, 1.000000000000000000 ) ) ;
#102 = DIRECTION ( 'NONE',  ( 1.000000000000000000, 0.000000000000000000, 0.000000000000000000 ) ) ;
#103 = APPROVAL_PERSON_ORGANIZATION ( #36, #125, #303 ) ;
#104 = DIRECTION ( 'NONE',  ( 0.000000000000000000, 0.000000000000000000, 1.000000000000000000 ) ) ;
#105 = DATE_AND_TIME ( #226, #5 ) ;
#106 = CARTESIAN_POINT ( 'NONE',  ( 9.000000000000000000, 0.000000000000000000, 9.000000000000000000 ) ) ;
#107 = PERSON_AND_ORGANIZATION_ROLE ( 'design_owner' ) ;
#108 = DIRECTION ( 'NONE',  ( 1.000000000000000000, 0.000000000000000000, 0.000000000000000000 ) ) ;
#109 = AXIS2_PLACEMENT_3D ( 'NONE', #21, #47, #100 ) ;
#110 = CARTESIAN_POINT ( 'NONE',  ( 0.000000000000000000, 0.000000000000000000, 9.000000000000000000 ) ) ;
#111 = VERTEX_POINT ( 'NONE', #251 ) ;
#112 = ORIENTED_EDGE ( 'NONE', *, *, #250, .T. ) ;
#113 = ADVANCED_FACE ( 'NONE', ( #291 ), #17, .F. ) ;
#114 = DIRECTION ( 'NONE',  ( 1.000000000000000000, 0.000000000000000000, 0.000000000000000000 ) ) ;
#115 = CYLINDRICAL_SURFACE ( 'NONE', #329, 5.500000000000000000 ) ;
#116 = DIRECTION ( 'NONE',  ( -1.000000000000000000, 0.000000000000000000, 0.000000000000000000 ) ) ;
#117 = CARTESIAN_POINT ( 'NONE',  ( -5.500000000000000000, 6.735557395310442023E-16, 9.000000000000000000 ) ) ;
#118 = DIRECTION ( 'NONE',  ( 1.000000000000000000, 0.000000000000000000, 0.000000000000000000 ) ) ;
#119 = CARTESIAN_POINT ( 'NONE',  ( 0.000000000000000000, 0.000000000000000000, 63.00000000000000000 ) ) ;
#120 = CC_DESIGN_DATE_AND_TIME_ASSIGNMENT ( #266, #16, ( #238 ) ) ;
#121 = PLANE ( 'NONE',  #33 ) ;
#122 = PERSON_AND_ORGANIZATION_ROLE ( 'design_supplier' ) ;
#123 = DIRECTION ( 'NONE',  ( 0.000000000000000000, 0.000000000000000000, 1.000000000000000000 ) ) ;
#124 = APPLICATION_PROTOCOL_DEFINITION ( 'international standard', 'config_control_design', 1994, #320 ) ;
#125 = APPROVAL ( #299, 'UNSPECIFIED' ) ;
#126 = CARTESIAN_POINT ( 'NONE',  ( 0.000000000000000000, 0.000000000000000000, 40.00000000000000000 ) ) ;
#127 = DIRECTION ( 'NONE',  ( -1.000000000000000000, 0.000000000000000000, 0.000000000000000000 ) ) ;
#128 = SECURITY_CLASSIFICATION_LEVEL ( 'unclassified' ) ;
#129 = APPLICATION_CONTEXT ( 'configuration controlled 3d designs of mechanical parts and assemblies' ) ;
#130 = DIRECTION ( 'NONE',  ( 1.000000000000000000, 0.000000000000000000, 0.000000000000000000 ) ) ;
#131 = VERTEX_POINT ( 'NONE', #79 ) ;
#132 = CARTESIAN_POINT ( 'NONE',  ( 0.000000000000000000, 0.000000000000000000, 63.00000000000000000 ) ) ;
#133 = EDGE_LOOP ( 'NONE', ( #183, #91 ) ) ;
#134 = ORIENTED_EDGE ( 'NONE', *, *, #75, .T. ) ;
#135 = CARTESIAN_POINT ( 'NONE',  ( -16.00000000000000000, 1.959434878635765131E-15, 40.00000000000000000 ) ) ;
#136 = CIRCLE ( 'NONE', #312, 16.00000000000000000 ) ;
#137 = AXIS2_PLACEMENT_3D ( 'NONE', #30, #254, #324 ) ;
#138 = LOCAL_TIME ( 8, 51, 11.00000000000000000, #139 ) ;
#139 = COORDINATED_UNIVERSAL_TIME_OFFSET ( 9, 0, .AHEAD. ) ;
#140 = VERTEX_POINT ( 'NONE', #14 ) ;
#141 = LINE ( 'NONE', #6, #209 ) ;
#142 = PRODUCT_DEFINITION_SHAPE ( 'NONE', 'NONE',  #238 ) ;
#143 = ORIENTED_EDGE ( 'NONE', *, *, #200, .F. ) ;
#144 = EDGE_CURVE ( 'NONE', #284, #280, #294, .T. ) ;
#145 = AXIS2_PLACEMENT_3D ( 'NONE', #76, #104, #150 ) ;
#146 = ORIENTED_EDGE ( 'NONE', *, *, #212, .T. ) ;
#147 = EDGE_CURVE ( 'NONE', #284, #111, #180, .T. ) ;
#148 = EDGE_CURVE ( 'NONE', #280, #284, #70, .T. ) ;
#149 = PERSON_AND_ORGANIZATION_ROLE ( 'creator' ) ;
#150 = DIRECTION ( 'NONE',  ( 1.000000000000000000, 0.000000000000000000, 0.000000000000000000 ) ) ;
#151 = CARTESIAN_POINT ( 'NONE',  ( -9.000000000000000000, 1.102182119232617714E-15, 40.00000000000000000 ) ) ;
#152 = DIRECTION ( 'NONE',  ( 0.000000000000000000, 0.000000000000000000, -1.000000000000000000 ) ) ;
#153 = APPROVAL_DATE_TIME ( #271, #326 ) ;
#154 =( NAMED_UNIT ( * ) SI_UNIT ( $, .STERADIAN. ) SOLID_ANGLE_UNIT ( ) );
#155 = ADVANCED_FACE ( 'NONE', ( #272 ), #175, .T. ) ;
#156 = ORIENTED_EDGE ( 'NONE', *, *, #204, .F. ) ;
#157 = EDGE_LOOP ( 'NONE', ( #146, #234 ) ) ;
#158 = ADVANCED_FACE ( 'NONE', ( #268 ), #203, .F. ) ;
#159 = EDGE_LOOP ( 'NONE', ( #215, #156 ) ) ;
#160 = VERTEX_POINT ( 'NONE', #316 ) ;
#161 = CIRCLE ( 'NONE', #193, 9.000000000000000000 ) ;
#162 = CARTESIAN_POINT ( 'NONE',  ( 0.000000000000000000, 0.000000000000000000, 9.000000000000000000 ) ) ;
#163 = ORIENTED_EDGE ( 'NONE', *, *, #147, .F. ) ;
#164 = CIRCLE ( 'NONE', #232, 16.00000000000000000 ) ;
#165 = ORIENTED_EDGE ( 'NONE', *, *, #185, .F. ) ;
#166 = CARTESIAN_POINT ( 'NONE',  ( 0.000000000000000000, 0.000000000000000000, 40.00000000000000000 ) ) ;
#167 = CC_DESIGN_APPROVAL ( #29, ( #238 ) ) ;
#168 = ADVANCED_FACE ( 'NONE', ( #293, #199 ), #287, .F. ) ;
#169 = ORIENTED_EDGE ( 'NONE', *, *, #51, .F. ) ;
#170 = FACE_OUTER_BOUND ( 'NONE', #245, .T. ) ;
#171 = CARTESIAN_POINT ( 'NONE',  ( 5.500000000000000000, 0.000000000000000000, 40.00000000000000000 ) ) ;
#172 = APPROVAL_DATE_TIME ( #105, #29 ) ;
#173 = AXIS2_PLACEMENT_3D ( 'NONE', #43, #45, #118 ) ;
#174 = EDGE_CURVE ( 'NONE', #140, #131, #248, .T. ) ;
#175 = CYLINDRICAL_SURFACE ( 'NONE', #308, 16.00000000000000000 ) ;
#176 = COORDINATED_UNIVERSAL_TIME_OFFSET ( 9, 0, .AHEAD. ) ;
#177 = DIRECTION ( 'NONE',  ( 0.000000000000000000, 0.000000000000000000, 1.000000000000000000 ) ) ;
#178 = CALENDAR_DATE ( 2021, 25, 10 ) ;
#179 = EDGE_CURVE ( 'NONE', #35, #131, #11, .T. ) ;
#180 = LINE ( 'NONE', #171, #46 ) ;
#181 = CARTESIAN_POINT ( 'NONE',  ( 9.000000000000000000, 0.000000000000000000, 9.000000000000000000 ) ) ;
#182 = PLANE ( 'NONE',  #42 ) ;
#183 = ORIENTED_EDGE ( 'NONE', *, *, #144, .T. ) ;
#184 = DATE_AND_TIME ( #186, #202 ) ;
#185 = EDGE_CURVE ( 'NONE', #140, #211, #318, .T. ) ;
#186 = CALENDAR_DATE ( 2021, 25, 10 ) ;
#187 = AXIS2_PLACEMENT_3D ( 'NONE', #305, #228, #108 ) ;
#188 = CARTESIAN_POINT ( 'NONE',  ( 5.500000000000000000, 0.000000000000000000, 0.000000000000000000 ) ) ;
#189 = EDGE_LOOP ( 'NONE', ( #143, #89, #194, #169 ) ) ;
#190 = FACE_BOUND ( 'NONE', #9, .T. ) ;
#191 = ORIENTED_EDGE ( 'NONE', *, *, #51, .T. ) ;
#192 = AXIS2_PLACEMENT_3D ( 'NONE', #225, #222, #269 ) ;
#193 = AXIS2_PLACEMENT_3D ( 'NONE', #233, #64, #23 ) ;
#194 = ORIENTED_EDGE ( 'NONE', *, *, #309, .T. ) ;
#195 = ADVANCED_FACE ( 'NONE', ( #60 ), #255, .T. ) ;
#196 = VECTOR ( 'NONE', #123, 1000.000000000000000 ) ;
#197 = LOCAL_TIME ( 8, 51, 11.00000000000000000, #325 ) ;
#198 = DIRECTION ( 'NONE',  ( 0.000000000000000000, 0.000000000000000000, 1.000000000000000000 ) ) ;
#199 = FACE_OUTER_BOUND ( 'NONE', #4, .T. ) ;
#200 = EDGE_CURVE ( 'NONE', #259, #160, #27, .T. ) ;
#201 = CARTESIAN_POINT ( 'NONE',  ( 9.000000000000000000, 0.000000000000000000, 40.00000000000000000 ) ) ;
#202 = LOCAL_TIME ( 8, 51, 11.00000000000000000, #85 ) ;
#203 = CYLINDRICAL_SURFACE ( 'NONE', #145, 5.500000000000000000 ) ;
#204 = EDGE_CURVE ( 'NONE', #131, #35, #161, .T. ) ;
#205 = DIRECTION ( 'NONE',  ( 0.000000000000000000, 0.000000000000000000, 1.000000000000000000 ) ) ;
#206 = APPROVAL_STATUS ( 'not_yet_approved' ) ;
#207 = AXIS2_PLACEMENT_3D ( 'NONE', #126, #53, #55 ) ;
#208 = DIRECTION ( 'NONE',  ( 0.000000000000000000, 0.000000000000000000, 1.000000000000000000 ) ) ;
#209 = VECTOR ( 'NONE', #239, 1000.000000000000000 ) ;
#210 = DATE_AND_TIME ( #230, #138 ) ;
#211 = VERTEX_POINT ( 'NONE', #106 ) ;
#212 = EDGE_CURVE ( 'NONE', #211, #140, #48, .T. ) ;
#213 = EDGE_LOOP ( 'NONE', ( #231, #25, #1, #7 ) ) ;
#214 = DIRECTION ( 'NONE',  ( 1.000000000000000000, 0.000000000000000000, 0.000000000000000000 ) ) ;
#215 = ORIENTED_EDGE ( 'NONE', *, *, #179, .F. ) ;
#216 = CC_DESIGN_DATE_AND_TIME_ASSIGNMENT ( #210, #62, ( #229 ) ) ;
#217 = CYLINDRICAL_SURFACE ( 'NONE', #173, 9.000000000000000000 ) ;
#218 = VECTOR ( 'NONE', #56, 1000.000000000000000 ) ;
#219 = DIRECTION ( 'NONE',  ( 0.000000000000000000, 0.000000000000000000, 1.000000000000000000 ) ) ;
#220 = CARTESIAN_POINT ( 'NONE',  ( 0.000000000000000000, 0.000000000000000000, 63.00000000000000000 ) ) ;
#221 = CARTESIAN_POINT ( 'NONE',  ( 5.500000000000000000, 0.000000000000000000, 0.000000000000000000 ) ) ;
#222 = DIRECTION ( 'NONE',  ( 0.000000000000000000, 0.000000000000000000, 1.000000000000000000 ) ) ;
#223 = DIRECTION ( 'NONE',  ( 0.000000000000000000, 0.000000000000000000, 1.000000000000000000 ) ) ;
#224 = MECHANICAL_CONTEXT ( 'NONE', #320, 'mechanical' ) ;
#225 = CARTESIAN_POINT ( 'NONE',  ( 0.000000000000000000, 0.000000000000000000, 0.000000000000000000 ) ) ;
#226 = CALENDAR_DATE ( 2021, 25, 10 ) ;
#227 = APPLICATION_PROTOCOL_DEFINITION ( 'international standard', 'config_control_design', 1994, #129 ) ;
#228 = DIRECTION ( 'NONE',  ( 0.000000000000000000, 0.000000000000000000, 1.000000000000000000 ) ) ;
#229 = SECURITY_CLASSIFICATION ( '', '', #128 ) ;
#230 = CALENDAR_DATE ( 2021, 25, 10 ) ;
#231 = ORIENTED_EDGE ( 'NONE', *, *, #174, .F. ) ;
#232 = AXIS2_PLACEMENT_3D ( 'NONE', #220, #282, #311 ) ;
#233 = CARTESIAN_POINT ( 'NONE',  ( 0.000000000000000000, 0.000000000000000000, 63.00000000000000000 ) ) ;
#234 = ORIENTED_EDGE ( 'NONE', *, *, #185, .T. ) ;
#235 = AXIS2_PLACEMENT_3D ( 'NONE', #110, #208, #214 ) ;
#236 = CC_DESIGN_APPROVAL ( #326, ( #13 ) ) ;
#237 = ORIENTED_EDGE ( 'NONE', *, *, #204, .T. ) ;
#238 = PRODUCT_DEFINITION ( 'UNKNOWN', '', #13, #260 ) ;
#239 = DIRECTION ( 'NONE',  ( 0.000000000000000000, 0.000000000000000000, 1.000000000000000000 ) ) ;
#240 = ORIENTED_EDGE ( 'NONE', *, *, #20, .T. ) ;
#241 = AXIS2_PLACEMENT_3D ( 'NONE', #132, #328, #301 ) ;
#242 = CC_DESIGN_PERSON_AND_ORGANIZATION_ASSIGNMENT ( #252, #247, ( #13 ) ) ;
#243 = CC_DESIGN_APPROVAL ( #125, ( #229 ) ) ;
#244 = ORIENTED_EDGE ( 'NONE', *, *, #99, .F. ) ;
#245 = EDGE_LOOP ( 'NONE', ( #165, #93, #237, #244 ) ) ;
#246 = DIRECTION ( 'NONE',  ( 0.000000000000000000, 0.000000000000000000, 1.000000000000000000 ) ) ;
#247 = PERSON_AND_ORGANIZATION_ROLE ( 'creator' ) ;
#248 = LINE ( 'NONE', #151, #196 ) ;
#249 = COORDINATED_UNIVERSAL_TIME_OFFSET ( 9, 0, .AHEAD. ) ;
#250 = EDGE_CURVE ( 'NONE', #306, #259, #97, .T. ) ;
#251 = CARTESIAN_POINT ( 'NONE',  ( 5.500000000000000000, 0.000000000000000000, 9.000000000000000000 ) ) ;
#252 = PERSON_AND_ORGANIZATION ( #289, #34 ) ;
#253 = AXIS2_PLACEMENT_3D ( 'NONE', #18, #205, #130 ) ;
#254 = DIRECTION ( 'NONE',  ( 0.000000000000000000, 0.000000000000000000, 1.000000000000000000 ) ) ;
#255 = CYLINDRICAL_SURFACE ( 'NONE', #137, 16.00000000000000000 ) ;
#256 = ORIENTED_EDGE ( 'NONE', *, *, #87, .F. ) ;
#257 = VECTOR ( 'NONE', #265, 1000.000000000000000 ) ;
#258 = CARTESIAN_POINT ( 'NONE',  ( 0.000000000000000000, 0.000000000000000000, 9.000000000000000000 ) ) ;
#259 = VERTEX_POINT ( 'NONE', #88 ) ;
#260 = DESIGN_CONTEXT ( 'detailed design', #129, 'design' ) ;
#261 = DIRECTION ( 'NONE',  ( 1.000000000000000000, 0.000000000000000000, 0.000000000000000000 ) ) ;
#262 = ORIENTED_EDGE ( 'NONE', *, *, #8, .F. ) ;
#263 = PRODUCT ( 'bj300-10063', 'bj300-10063', '', ( #224 ) ) ;
#264 = CC_DESIGN_PERSON_AND_ORGANIZATION_ASSIGNMENT ( #77, #58, ( #229 ) ) ;
#265 = DIRECTION ( 'NONE',  ( 0.000000000000000000, 0.000000000000000000, 1.000000000000000000 ) ) ;
#266 = DATE_AND_TIME ( #178, #197 ) ;
#267 = CARTESIAN_POINT ( 'NONE',  ( 16.00000000000000000, 0.000000000000000000, 63.00000000000000000 ) ) ;
#268 = FACE_OUTER_BOUND ( 'NONE', #327, .T. ) ;
#269 = DIRECTION ( 'NONE',  ( 1.000000000000000000, 0.000000000000000000, 0.000000000000000000 ) ) ;
#270 = VECTOR ( 'NONE', #198, 1000.000000000000000 ) ;
#271 = DATE_AND_TIME ( #317, #80 ) ;
#272 = FACE_OUTER_BOUND ( 'NONE', #28, .T. ) ;
#273 = DIRECTION ( 'NONE',  ( 0.000000000000000000, 0.000000000000000000, -1.000000000000000000 ) ) ;
#274 = ORIENTED_EDGE ( 'NONE', *, *, #309, .F. ) ;
#275 = DIRECTION ( 'NONE',  ( 1.000000000000000000, 0.000000000000000000, 0.000000000000000000 ) ) ;
#276 = ORIENTED_EDGE ( 'NONE', *, *, #200, .T. ) ;
#277 = ORIENTED_EDGE ( 'NONE', *, *, #304, .T. ) ;
#278 =( GEOMETRIC_REPRESENTATION_CONTEXT ( 3 ) GLOBAL_UNCERTAINTY_ASSIGNED_CONTEXT ( ( #71 ) ) GLOBAL_UNIT_ASSIGNED_CONTEXT ( ( #52, #295, #154 ) ) REPRESENTATION_CONTEXT ( 'NONE', 'WORKASPACE' ) );
#279 = ADVANCED_FACE ( 'NONE', ( #190, #298 ), #182, .F. ) ;
#280 = VERTEX_POINT ( 'NONE', #19 ) ;
#281 = CARTESIAN_POINT ( 'NONE',  ( 16.00000000000000000, 0.000000000000000000, 0.000000000000000000 ) ) ;
#282 = DIRECTION ( 'NONE',  ( 0.000000000000000000, 0.000000000000000000, 1.000000000000000000 ) ) ;
#283 = FACE_OUTER_BOUND ( 'NONE', #83, .T. ) ;
#284 = VERTEX_POINT ( 'NONE', #188 ) ;
#285 = AXIS2_PLACEMENT_3D ( 'NONE', #267, #152, #127 ) ;
#286 = ADVANCED_FACE ( 'NONE', ( #170 ), #217, .F. ) ;
#287 = PLANE ( 'NONE',  #285 ) ;
#288 = CARTESIAN_POINT ( 'NONE',  ( 0.000000000000000000, 0.000000000000000000, 40.00000000000000000 ) ) ;
#289 = PERSON ( 'UNSPECIFIED', 'UNSPECIFIED', 'UNSPECIFIED', ('UNSPECIFIED'), ('UNSPECIFIED'), ('UNSPECIFIED') ) ;
#290 = APPROVAL_ROLE ( '' ) ;
#291 = FACE_OUTER_BOUND ( 'NONE', #213, .T. ) ;
#292 = PERSON_AND_ORGANIZATION ( #289, #34 ) ;
#293 = FACE_BOUND ( 'NONE', #159, .T. ) ;
#294 = CIRCLE ( 'NONE', #192, 5.500000000000000000 ) ;
#295 =( NAMED_UNIT ( * ) PLANE_ANGLE_UNIT ( ) SI_UNIT ( $, .RADIAN. ) );
#296 = ADVANCED_FACE ( 'NONE', ( #283, #12 ), #121, .F. ) ;
#297 = AXIS2_PLACEMENT_3D ( 'NONE', #162, #72, #39 ) ;
#298 = FACE_OUTER_BOUND ( 'NONE', #157, .T. ) ;
#299 = APPROVAL_STATUS ( 'not_yet_approved' ) ;
#300 = CC_DESIGN_PERSON_AND_ORGANIZATION_ASSIGNMENT ( #78, #149, ( #238 ) ) ;
#301 = DIRECTION ( 'NONE',  ( 1.000000000000000000, 0.000000000000000000, 0.000000000000000000 ) ) ;
#302 = CIRCLE ( 'NONE', #24, 16.00000000000000000 ) ;
#303 = APPROVAL_ROLE ( '' ) ;
#304 = EDGE_CURVE ( 'NONE', #57, #111, #92, .T. ) ;
#305 = CARTESIAN_POINT ( 'NONE',  ( 0.000000000000000000, 0.000000000000000000, 0.000000000000000000 ) ) ;
#306 = VERTEX_POINT ( 'NONE', #281 ) ;
#307 = ORIENTED_EDGE ( 'NONE', *, *, #304, .F. ) ;
#308 = AXIS2_PLACEMENT_3D ( 'NONE', #288, #177, #321 ) ;
#309 = EDGE_CURVE ( 'NONE', #306, #31, #141, .T. ) ;
#310 = DIRECTION ( 'NONE',  ( 1.000000000000000000, 0.000000000000000000, 0.000000000000000000 ) ) ;
#311 = DIRECTION ( 'NONE',  ( 1.000000000000000000, 0.000000000000000000, 0.000000000000000000 ) ) ;
#312 = AXIS2_PLACEMENT_3D ( 'NONE', #73, #246, #49 ) ;
#313 = CC_DESIGN_SECURITY_CLASSIFICATION ( #229, ( #13 ) ) ;
#314 = DIRECTION ( 'NONE',  ( 0.000000000000000000, 0.000000000000000000, 1.000000000000000000 ) ) ;
#315 = PERSON_AND_ORGANIZATION ( #289, #34 ) ;
#316 = CARTESIAN_POINT ( 'NONE',  ( -16.00000000000000000, 1.959434878635765131E-15, 63.00000000000000000 ) ) ;
#317 = CALENDAR_DATE ( 2021, 25, 10 ) ;
#318 = CIRCLE ( 'NONE', #26, 9.000000000000000000 ) ;
#319 = LINE ( 'NONE', #201, #257 ) ;
#320 = APPLICATION_CONTEXT ( 'configuration controlled 3d designs of mechanical parts and assemblies' ) ;
#321 = DIRECTION ( 'NONE',  ( 1.000000000000000000, 0.000000000000000000, 0.000000000000000000 ) ) ;
#322 = ADVANCED_FACE ( 'NONE', ( #67 ), #115, .F. ) ;
#323 = APPROVAL_STATUS ( 'not_yet_approved' ) ;
#324 = DIRECTION ( 'NONE',  ( 1.000000000000000000, 0.000000000000000000, 0.000000000000000000 ) ) ;
#325 = COORDINATED_UNIVERSAL_TIME_OFFSET ( 9, 0, .AHEAD. ) ;
#326 = APPROVAL ( #323, 'UNSPECIFIED' ) ;
#327 = EDGE_LOOP ( 'NONE', ( #44, #134, #277, #163 ) ) ;
#328 = DIRECTION ( 'NONE',  ( 0.000000000000000000, 0.000000000000000000, 1.000000000000000000 ) ) ;
#329 = AXIS2_PLACEMENT_3D ( 'NONE', #166, #223, #102 ) ;
ENDSEC;
END-ISO-10303-21;
