ISO-10303-21;
HEADER;
FILE_DESCRIPTION (( 'STEP AP203' ),
    '1' );
FILE_NAME ('bj623-08003.STEP',
    '2021-10-24T23:57:21',
    ( '' ),
    ( '' ),
    'SwSTEP 2.0',
    'SolidWorks 2020',
    '' );
FILE_SCHEMA (( 'CONFIG_CONTROL_DESIGN' ));
ENDSEC;

DATA;
#1 = APPROVAL_STATUS ( 'not_yet_approved' ) ;
#2 = EDGE_CURVE ( 'NONE', #182, #202, #119, .T. ) ;
#3 = EDGE_LOOP ( 'NONE', ( #83, #117 ) ) ;
#4 = CARTESIAN_POINT ( 'NONE',  ( -4.200000000000000178, 0.000000000000000000, 0.000000000000000000 ) ) ;
#5 = APPROVAL_STATUS ( 'not_yet_approved' ) ;
#6 = DIRECTION ( 'NONE',  ( 0.000000000000000000, 0.000000000000000000, -1.000000000000000000 ) ) ;
#7 = DIRECTION ( 'NONE',  ( 0.000000000000000000, 0.000000000000000000, -1.000000000000000000 ) ) ;
#8 = APPLICATION_CONTEXT ( 'configuration controlled 3d designs of mechanical parts and assemblies' ) ;
#9 = APPROVAL_PERSON_ORGANIZATION ( #173, #66, #155 ) ;
#10 = VERTEX_POINT ( 'NONE', #4 ) ;
#11 = FACE_BOUND ( 'NONE', #216, .T. ) ;
#12 = ADVANCED_FACE ( 'NONE', ( #74, #11 ), #77, .F. ) ;
#13 = AXIS2_PLACEMENT_3D ( 'NONE', #206, #240, #89 ) ;
#14 = CC_DESIGN_SECURITY_CLASSIFICATION ( #52, ( #159 ) ) ;
#15 = ORIENTED_EDGE ( 'NONE', *, *, #45, .T. ) ;
#16 = LINE ( 'NONE', #167, #189 ) ;
#17 = CIRCLE ( 'NONE', #30, 12.50000000000000000 ) ;
#18 = ORGANIZATION ( 'UNSPECIFIED', 'UNSPECIFIED', '' ) ;
#19 = DIRECTION ( 'NONE',  ( 1.000000000000000000, 0.000000000000000000, 0.000000000000000000 ) ) ;
#20 = CARTESIAN_POINT ( 'NONE',  ( 0.000000000000000000, 0.000000000000000000, 10.00000000000000000 ) ) ;
#21 = APPROVAL_DATE_TIME ( #186, #66 ) ;
#22 = ORIENTED_EDGE ( 'NONE', *, *, #225, .F. ) ;
#23 = DIRECTION ( 'NONE',  ( 0.000000000000000000, 0.000000000000000000, -1.000000000000000000 ) ) ;
#24 = CARTESIAN_POINT ( 'NONE',  ( 12.50000000000000000, 1.530808498934191521E-15, 0.000000000000000000 ) ) ;
#25 = DIRECTION ( 'NONE',  ( 0.000000000000000000, 0.000000000000000000, 1.000000000000000000 ) ) ;
#26 = EDGE_CURVE ( 'NONE', #158, #178, #211, .T. ) ;
#27 = CARTESIAN_POINT ( 'NONE',  ( 4.200000000000000178, 5.143516556418882928E-16, 10.00000000000000000 ) ) ;
#28 = EDGE_LOOP ( 'NONE', ( #241, #97, #165, #73 ) ) ;
#29 = CC_DESIGN_PERSON_AND_ORGANIZATION_ASSIGNMENT ( #243, #220, ( #159 ) ) ;
#30 = AXIS2_PLACEMENT_3D ( 'NONE', #94, #170, #71 ) ;
#31 = AXIS2_PLACEMENT_3D ( 'NONE', #224, #190, #144 ) ;
#32 = EDGE_CURVE ( 'NONE', #76, #158, #237, .T. ) ;
#33 = ORIENTED_EDGE ( 'NONE', *, *, #201, .T. ) ;
#34 = DIRECTION ( 'NONE',  ( 0.000000000000000000, 0.000000000000000000, 1.000000000000000000 ) ) ;
#35 = APPROVAL ( #145, 'UNSPECIFIED' ) ;
#36 = CARTESIAN_POINT ( 'NONE',  ( 0.000000000000000000, 0.000000000000000000, 0.000000000000000000 ) ) ;
#37 = COORDINATED_UNIVERSAL_TIME_OFFSET ( 9, 0, .AHEAD. ) ;
#38 = PERSON_AND_ORGANIZATION_ROLE ( 'classification_officer' ) ;
#39 = APPLICATION_PROTOCOL_DEFINITION ( 'international standard', 'config_control_design', 1994, #105 ) ;
#40 = CARTESIAN_POINT ( 'NONE',  ( 4.200000000000000178, 5.143516556418882928E-16, 10.00000000000000000 ) ) ;
#41 = DESIGN_CONTEXT ( 'detailed design', #8, 'design' ) ;
#42 = PERSON_AND_ORGANIZATION_ROLE ( 'creator' ) ;
#43 = LOCAL_TIME ( 8, 57, 21.00000000000000000, #95 ) ;
#44 = SHAPE_DEFINITION_REPRESENTATION ( #121, #161 ) ;
#45 = EDGE_CURVE ( 'NONE', #182, #132, #109, .T. ) ;
#46 = VECTOR ( 'NONE', #6, 1000.000000000000000 ) ;
#47 = AXIS2_PLACEMENT_3D ( 'NONE', #115, #198, #84 ) ;
#48 = SECURITY_CLASSIFICATION_LEVEL ( 'unclassified' ) ;
#49 = CYLINDRICAL_SURFACE ( 'NONE', #31, 12.50000000000000000 ) ;
#50 = PERSON_AND_ORGANIZATION ( #235, #18 ) ;
#51 = EDGE_LOOP ( 'NONE', ( #248, #33 ) ) ;
#52 = SECURITY_CLASSIFICATION ( '', '', #48 ) ;
#53 = CARTESIAN_POINT ( 'NONE',  ( 4.200000000000000178, 5.143516556418882928E-16, 0.000000000000000000 ) ) ;
#54 = ORIENTED_EDGE ( 'NONE', *, *, #45, .F. ) ;
#55 = ORIENTED_EDGE ( 'NONE', *, *, #2, .F. ) ;
#56 = DIRECTION ( 'NONE',  ( 0.000000000000000000, 0.000000000000000000, 1.000000000000000000 ) ) ;
#57 = APPROVAL ( #1, 'UNSPECIFIED' ) ;
#58 = ORIENTED_EDGE ( 'NONE', *, *, #222, .T. ) ;
#59 = DIRECTION ( 'NONE',  ( 1.000000000000000000, 0.000000000000000000, 0.000000000000000000 ) ) ;
#60 = AXIS2_PLACEMENT_3D ( 'NONE', #125, #212, #90 ) ;
#61 = CIRCLE ( 'NONE', #194, 12.50000000000000000 ) ;
#62 = DIRECTION ( 'NONE',  ( 0.000000000000000000, 0.000000000000000000, -1.000000000000000000 ) ) ;
#63 = PERSON_AND_ORGANIZATION ( #235, #18 ) ;
#64 = FACE_OUTER_BOUND ( 'NONE', #200, .T. ) ;
#65 = CARTESIAN_POINT ( 'NONE',  ( 12.50000000000000000, 1.530808498934191521E-15, 10.00000000000000000 ) ) ;
#66 = APPROVAL ( #5, 'UNSPECIFIED' ) ;
#67 = DIRECTION ( 'NONE',  ( 0.000000000000000000, 0.000000000000000000, -1.000000000000000000 ) ) ;
#68 = AXIS2_PLACEMENT_3D ( 'NONE', #120, #34, #80 ) ;
#69 = CYLINDRICAL_SURFACE ( 'NONE', #239, 4.200000000000000178 ) ;
#70 = DIRECTION ( 'NONE',  ( 0.000000000000000000, 0.000000000000000000, 1.000000000000000000 ) ) ;
#71 = DIRECTION ( 'NONE',  ( 1.000000000000000000, 0.000000000000000000, 0.000000000000000000 ) ) ;
#72 = PRODUCT_RELATED_PRODUCT_CATEGORY ( 'detail', '', ( #79 ) ) ;
#73 = ORIENTED_EDGE ( 'NONE', *, *, #134, .F. ) ;
#74 = FACE_OUTER_BOUND ( 'NONE', #3, .T. ) ;
#75 = AXIS2_PLACEMENT_3D ( 'NONE', #107, #67, #246 ) ;
#76 = VERTEX_POINT ( 'NONE', #65 ) ;
#77 = PLANE ( 'NONE',  #171 ) ;
#78 = EDGE_CURVE ( 'NONE', #132, #182, #99, .T. ) ;
#79 = PRODUCT ( 'bj623-08003', 'bj623-08003', '', ( #166 ) ) ;
#80 = DIRECTION ( 'NONE',  ( 1.000000000000000000, 0.000000000000000000, 0.000000000000000000 ) ) ;
#81 = CC_DESIGN_PERSON_AND_ORGANIZATION_ASSIGNMENT ( #249, #42, ( #204 ) ) ;
#82 = APPROVAL_ROLE ( '' ) ;
#83 = ORIENTED_EDGE ( 'NONE', *, *, #222, .F. ) ;
#84 = DIRECTION ( 'NONE',  ( 1.000000000000000000, 0.000000000000000000, 0.000000000000000000 ) ) ;
#85 = CARTESIAN_POINT ( 'NONE',  ( 0.000000000000000000, 0.000000000000000000, 10.00000000000000000 ) ) ;
#86 = CC_DESIGN_APPROVAL ( #35, ( #52 ) ) ;
#87 = DATE_TIME_ROLE ( 'classification_date' ) ;
#88 = FACE_OUTER_BOUND ( 'NONE', #28, .T. ) ;
#89 = DIRECTION ( 'NONE',  ( 1.000000000000000000, 0.000000000000000000, 0.000000000000000000 ) ) ;
#90 = DIRECTION ( 'NONE',  ( 1.000000000000000000, 0.000000000000000000, 0.000000000000000000 ) ) ;
#91 = CARTESIAN_POINT ( 'NONE',  ( -4.200000000000000178, 0.000000000000000000, 10.00000000000000000 ) ) ;
#92 = CARTESIAN_POINT ( 'NONE',  ( 0.000000000000000000, 0.000000000000000000, 10.00000000000000000 ) ) ;
#93 = AXIS2_PLACEMENT_3D ( 'NONE', #136, #122, #59 ) ;
#94 = CARTESIAN_POINT ( 'NONE',  ( 0.000000000000000000, 0.000000000000000000, 10.00000000000000000 ) ) ;
#95 = COORDINATED_UNIVERSAL_TIME_OFFSET ( 9, 0, .AHEAD. ) ;
#96 = ADVANCED_FACE ( 'NONE', ( #247, #188 ), #146, .T. ) ;
#97 = ORIENTED_EDGE ( 'NONE', *, *, #32, .T. ) ;
#98 = LOCAL_TIME ( 8, 57, 21.00000000000000000, #233 ) ;
#99 = CIRCLE ( 'NONE', #13, 4.200000000000000178 ) ;
#100 = EDGE_LOOP ( 'NONE', ( #55, #15, #151, #183 ) ) ;
#101 = FACE_OUTER_BOUND ( 'NONE', #103, .T. ) ;
#102 =( NAMED_UNIT ( * ) PLANE_ANGLE_UNIT ( ) SI_UNIT ( $, .RADIAN. ) );
#103 = EDGE_LOOP ( 'NONE', ( #138, #140, #156, #172 ) ) ;
#104 = CALENDAR_DATE ( 2021, 25, 10 ) ;
#105 = APPLICATION_CONTEXT ( 'configuration controlled 3d designs of mechanical parts and assemblies' ) ;
#106 = ORIENTED_EDGE ( 'NONE', *, *, #134, .T. ) ;
#107 = CARTESIAN_POINT ( 'NONE',  ( 0.000000000000000000, 0.000000000000000000, 10.00000000000000000 ) ) ;
#108 = LINE ( 'NONE', #223, #148 ) ;
#109 = CIRCLE ( 'NONE', #68, 4.200000000000000178 ) ;
#110 = CIRCLE ( 'NONE', #130, 12.50000000000000000 ) ;
#111 = CALENDAR_DATE ( 2021, 25, 10 ) ;
#112 = CC_DESIGN_PERSON_AND_ORGANIZATION_ASSIGNMENT ( #244, #169, ( #79 ) ) ;
#113 = VECTOR ( 'NONE', #7, 1000.000000000000000 ) ;
#114 = CC_DESIGN_APPROVAL ( #66, ( #159 ) ) ;
#115 = CARTESIAN_POINT ( 'NONE',  ( 0.000000000000000000, 0.000000000000000000, 0.000000000000000000 ) ) ;
#116 = ORIENTED_EDGE ( 'NONE', *, *, #78, .F. ) ;
#117 = ORIENTED_EDGE ( 'NONE', *, *, #26, .F. ) ;
#118 = AXIS2_PLACEMENT_3D ( 'NONE', #127, #23, #221 ) ;
#119 = LINE ( 'NONE', #27, #46 ) ;
#120 = CARTESIAN_POINT ( 'NONE',  ( 0.000000000000000000, 0.000000000000000000, 10.00000000000000000 ) ) ;
#121 = PRODUCT_DEFINITION_SHAPE ( 'NONE', 'NONE',  #204 ) ;
#122 = DIRECTION ( 'NONE',  ( 0.000000000000000000, 0.000000000000000000, 1.000000000000000000 ) ) ;
#123 = AXIS2_PLACEMENT_3D ( 'NONE', #205, #209, #19 ) ;
#124 = PERSON_AND_ORGANIZATION ( #235, #18 ) ;
#125 = CARTESIAN_POINT ( 'NONE',  ( 0.000000000000000000, 0.000000000000000000, 0.000000000000000000 ) ) ;
#126 = CARTESIAN_POINT ( 'NONE',  ( -12.50000000000000000, 0.000000000000000000, 10.00000000000000000 ) ) ;
#127 = CARTESIAN_POINT ( 'NONE',  ( 0.000000000000000000, 0.000000000000000000, 10.00000000000000000 ) ) ;
#128 = CC_DESIGN_DATE_AND_TIME_ASSIGNMENT ( #229, #231, ( #204 ) ) ;
#129 = CYLINDRICAL_SURFACE ( 'NONE', #75, 12.50000000000000000 ) ;
#130 = AXIS2_PLACEMENT_3D ( 'NONE', #36, #25, #214 ) ;
#131 = CIRCLE ( 'NONE', #93, 4.200000000000000178 ) ;
#132 = VERTEX_POINT ( 'NONE', #91 ) ;
#133 = DATE_AND_TIME ( #191, #43 ) ;
#134 = EDGE_CURVE ( 'NONE', #174, #178, #108, .T. ) ;
#135 = DIRECTION ( 'NONE',  ( 1.000000000000000000, 0.000000000000000000, 0.000000000000000000 ) ) ;
#136 = CARTESIAN_POINT ( 'NONE',  ( 0.000000000000000000, 0.000000000000000000, 0.000000000000000000 ) ) ;
#137 = CALENDAR_DATE ( 2021, 25, 10 ) ;
#138 = ORIENTED_EDGE ( 'NONE', *, *, #78, .T. ) ;
#139 = LOCAL_TIME ( 8, 57, 21.00000000000000000, #230 ) ;
#140 = ORIENTED_EDGE ( 'NONE', *, *, #2, .T. ) ;
#141 = PERSON_AND_ORGANIZATION_ROLE ( 'creator' ) ;
#142 = UNCERTAINTY_MEASURE_WITH_UNIT (LENGTH_MEASURE( 1.000000000000000082E-05 ), #227, 'distance_accuracy_value', 'NONE');
#143 = DATE_AND_TIME ( #160, #168 ) ;
#144 = DIRECTION ( 'NONE',  ( -1.000000000000000000, 0.000000000000000000, 0.000000000000000000 ) ) ;
#145 = APPROVAL_STATUS ( 'not_yet_approved' ) ;
#146 = PLANE ( 'NONE',  #192 ) ;
#147 = APPROVAL_DATE_TIME ( #133, #57 ) ;
#148 = VECTOR ( 'NONE', #193, 1000.000000000000000 ) ;
#149 = EDGE_CURVE ( 'NONE', #132, #10, #16, .T. ) ;
#150 = FACE_OUTER_BOUND ( 'NONE', #100, .T. ) ;
#151 = ORIENTED_EDGE ( 'NONE', *, *, #149, .T. ) ;
#152 = DIRECTION ( 'NONE',  ( -1.000000000000000000, 0.000000000000000000, 0.000000000000000000 ) ) ;
#153 =( GEOMETRIC_REPRESENTATION_CONTEXT ( 3 ) GLOBAL_UNCERTAINTY_ASSIGNED_CONTEXT ( ( #142 ) ) GLOBAL_UNIT_ASSIGNED_CONTEXT ( ( #227, #102, #180 ) ) REPRESENTATION_CONTEXT ( 'NONE', 'WORKASPACE' ) );
#154 = CARTESIAN_POINT ( 'NONE',  ( 0.000000000000000000, 0.000000000000000000, 0.000000000000000000 ) ) ;
#155 = APPROVAL_ROLE ( '' ) ;
#156 = ORIENTED_EDGE ( 'NONE', *, *, #177, .F. ) ;
#157 = ADVANCED_FACE ( 'NONE', ( #88 ), #49, .T. ) ;
#158 = VERTEX_POINT ( 'NONE', #24 ) ;
#159 = PRODUCT_DEFINITION_FORMATION_WITH_SPECIFIED_SOURCE ( 'ANY', '', #79, .NOT_KNOWN. ) ;
#160 = CALENDAR_DATE ( 2021, 25, 10 ) ;
#161 = ADVANCED_BREP_SHAPE_REPRESENTATION ( 'bj623-08003', ( #181, #60 ), #153 ) ;
#162 = APPROVAL_PERSON_ORGANIZATION ( #164, #35, #197 ) ;
#163 = DIRECTION ( 'NONE',  ( 0.000000000000000000, 0.000000000000000000, -1.000000000000000000 ) ) ;
#164 = PERSON_AND_ORGANIZATION ( #235, #18 ) ;
#165 = ORIENTED_EDGE ( 'NONE', *, *, #26, .T. ) ;
#166 = MECHANICAL_CONTEXT ( 'NONE', #105, 'mechanical' ) ;
#167 = CARTESIAN_POINT ( 'NONE',  ( -4.200000000000000178, 0.000000000000000000, 10.00000000000000000 ) ) ;
#168 = LOCAL_TIME ( 8, 57, 21.00000000000000000, #37 ) ;
#169 = PERSON_AND_ORGANIZATION_ROLE ( 'design_owner' ) ;
#170 = DIRECTION ( 'NONE',  ( 0.000000000000000000, 0.000000000000000000, 1.000000000000000000 ) ) ;
#171 = AXIS2_PLACEMENT_3D ( 'NONE', #154, #56, #135 ) ;
#172 = ORIENTED_EDGE ( 'NONE', *, *, #149, .F. ) ;
#173 = PERSON_AND_ORGANIZATION ( #235, #18 ) ;
#174 = VERTEX_POINT ( 'NONE', #126 ) ;
#175 = CIRCLE ( 'NONE', #123, 4.200000000000000178 ) ;
#176 = CYLINDRICAL_SURFACE ( 'NONE', #118, 4.200000000000000178 ) ;
#177 = EDGE_CURVE ( 'NONE', #10, #202, #131, .T. ) ;
#178 = VERTEX_POINT ( 'NONE', #217 ) ;
#179 = ADVANCED_FACE ( 'NONE', ( #101 ), #176, .F. ) ;
#180 =( NAMED_UNIT ( * ) SI_UNIT ( $, .STERADIAN. ) SOLID_ANGLE_UNIT ( ) );
#181 = MANIFOLD_SOLID_BREP ( 'Imported1', #245 ) ;
#182 = VERTEX_POINT ( 'NONE', #40 ) ;
#183 = ORIENTED_EDGE ( 'NONE', *, *, #185, .F. ) ;
#184 = DIRECTION ( 'NONE',  ( 1.000000000000000000, 0.000000000000000000, 0.000000000000000000 ) ) ;
#185 = EDGE_CURVE ( 'NONE', #202, #10, #175, .T. ) ;
#186 = DATE_AND_TIME ( #137, #236 ) ;
#187 = APPLICATION_PROTOCOL_DEFINITION ( 'international standard', 'config_control_design', 1994, #8 ) ;
#188 = FACE_BOUND ( 'NONE', #213, .T. ) ;
#189 = VECTOR ( 'NONE', #62, 1000.000000000000000 ) ;
#190 = DIRECTION ( 'NONE',  ( 0.000000000000000000, 0.000000000000000000, -1.000000000000000000 ) ) ;
#191 = CALENDAR_DATE ( 2021, 25, 10 ) ;
#192 = AXIS2_PLACEMENT_3D ( 'NONE', #92, #70, #226 ) ;
#193 = DIRECTION ( 'NONE',  ( 0.000000000000000000, 0.000000000000000000, -1.000000000000000000 ) ) ;
#194 = AXIS2_PLACEMENT_3D ( 'NONE', #20, #242, #184 ) ;
#195 = DATE_AND_TIME ( #104, #98 ) ;
#196 = CC_DESIGN_PERSON_AND_ORGANIZATION_ASSIGNMENT ( #63, #141, ( #159 ) ) ;
#197 = APPROVAL_ROLE ( '' ) ;
#198 = DIRECTION ( 'NONE',  ( 0.000000000000000000, 0.000000000000000000, 1.000000000000000000 ) ) ;
#199 = COORDINATED_UNIVERSAL_TIME_OFFSET ( 9, 0, .AHEAD. ) ;
#200 = EDGE_LOOP ( 'NONE', ( #234, #22, #106, #58 ) ) ;
#201 = EDGE_CURVE ( 'NONE', #76, #174, #61, .T. ) ;
#202 = VERTEX_POINT ( 'NONE', #53 ) ;
#203 = APPROVAL_PERSON_ORGANIZATION ( #50, #57, #82 ) ;
#204 = PRODUCT_DEFINITION ( 'UNKNOWN', '', #159, #41 ) ;
#205 = CARTESIAN_POINT ( 'NONE',  ( 0.000000000000000000, 0.000000000000000000, 0.000000000000000000 ) ) ;
#206 = CARTESIAN_POINT ( 'NONE',  ( 0.000000000000000000, 0.000000000000000000, 10.00000000000000000 ) ) ;
#207 = CARTESIAN_POINT ( 'NONE',  ( 12.50000000000000000, 1.530808498934191521E-15, 10.00000000000000000 ) ) ;
#208 = ADVANCED_FACE ( 'NONE', ( #64 ), #129, .T. ) ;
#209 = DIRECTION ( 'NONE',  ( 0.000000000000000000, 0.000000000000000000, 1.000000000000000000 ) ) ;
#210 = CC_DESIGN_APPROVAL ( #57, ( #204 ) ) ;
#211 = CIRCLE ( 'NONE', #47, 12.50000000000000000 ) ;
#212 = DIRECTION ( 'NONE',  ( 0.000000000000000000, 0.000000000000000000, 1.000000000000000000 ) ) ;
#213 = EDGE_LOOP ( 'NONE', ( #116, #54 ) ) ;
#214 = DIRECTION ( 'NONE',  ( 1.000000000000000000, 0.000000000000000000, 0.000000000000000000 ) ) ;
#215 = ADVANCED_FACE ( 'NONE', ( #150 ), #69, .F. ) ;
#216 = EDGE_LOOP ( 'NONE', ( #219, #232 ) ) ;
#217 = CARTESIAN_POINT ( 'NONE',  ( -12.50000000000000000, 0.000000000000000000, 0.000000000000000000 ) ) ;
#218 = APPROVAL_DATE_TIME ( #195, #35 ) ;
#219 = ORIENTED_EDGE ( 'NONE', *, *, #177, .T. ) ;
#220 = PERSON_AND_ORGANIZATION_ROLE ( 'design_supplier' ) ;
#221 = DIRECTION ( 'NONE',  ( -1.000000000000000000, 0.000000000000000000, 0.000000000000000000 ) ) ;
#222 = EDGE_CURVE ( 'NONE', #178, #158, #110, .T. ) ;
#223 = CARTESIAN_POINT ( 'NONE',  ( -12.50000000000000000, 0.000000000000000000, 10.00000000000000000 ) ) ;
#224 = CARTESIAN_POINT ( 'NONE',  ( 0.000000000000000000, 0.000000000000000000, 10.00000000000000000 ) ) ;
#225 = EDGE_CURVE ( 'NONE', #174, #76, #17, .T. ) ;
#226 = DIRECTION ( 'NONE',  ( 1.000000000000000000, 0.000000000000000000, 0.000000000000000000 ) ) ;
#227 =( LENGTH_UNIT ( ) NAMED_UNIT ( * ) SI_UNIT ( .MILLI., .METRE. ) );
#228 = CC_DESIGN_PERSON_AND_ORGANIZATION_ASSIGNMENT ( #124, #38, ( #52 ) ) ;
#229 = DATE_AND_TIME ( #111, #139 ) ;
#230 = COORDINATED_UNIVERSAL_TIME_OFFSET ( 9, 0, .AHEAD. ) ;
#231 = DATE_TIME_ROLE ( 'creation_date' ) ;
#232 = ORIENTED_EDGE ( 'NONE', *, *, #185, .T. ) ;
#233 = COORDINATED_UNIVERSAL_TIME_OFFSET ( 9, 0, .AHEAD. ) ;
#234 = ORIENTED_EDGE ( 'NONE', *, *, #32, .F. ) ;
#235 = PERSON ( 'UNSPECIFIED', 'UNSPECIFIED', 'UNSPECIFIED', ('UNSPECIFIED'), ('UNSPECIFIED'), ('UNSPECIFIED') ) ;
#236 = LOCAL_TIME ( 8, 57, 21.00000000000000000, #199 ) ;
#237 = LINE ( 'NONE', #207, #113 ) ;
#238 = CC_DESIGN_DATE_AND_TIME_ASSIGNMENT ( #143, #87, ( #52 ) ) ;
#239 = AXIS2_PLACEMENT_3D ( 'NONE', #85, #163, #152 ) ;
#240 = DIRECTION ( 'NONE',  ( 0.000000000000000000, 0.000000000000000000, 1.000000000000000000 ) ) ;
#241 = ORIENTED_EDGE ( 'NONE', *, *, #201, .F. ) ;
#242 = DIRECTION ( 'NONE',  ( 0.000000000000000000, 0.000000000000000000, 1.000000000000000000 ) ) ;
#243 = PERSON_AND_ORGANIZATION ( #235, #18 ) ;
#244 = PERSON_AND_ORGANIZATION ( #235, #18 ) ;
#245 = CLOSED_SHELL ( 'NONE', ( #179, #157, #96, #12, #208, #215 ) ) ;
#246 = DIRECTION ( 'NONE',  ( -1.000000000000000000, 0.000000000000000000, 0.000000000000000000 ) ) ;
#247 = FACE_OUTER_BOUND ( 'NONE', #51, .T. ) ;
#248 = ORIENTED_EDGE ( 'NONE', *, *, #225, .T. ) ;
#249 = PERSON_AND_ORGANIZATION ( #235, #18 ) ;
ENDSEC;
END-ISO-10303-21;
