ISO-10303-21;
HEADER;
FILE_DESCRIPTION (( 'STEP AP203' ),
    '1' );
FILE_NAME ('bj623-12002.STEP',
    '2021-10-24T23:57:37',
    ( '' ),
    ( '' ),
    'SwSTEP 2.0',
    'SolidWorks 2020',
    '' );
FILE_SCHEMA (( 'CONFIG_CONTROL_DESIGN' ));
ENDSEC;

DATA;
#1 = APPLICATION_PROTOCOL_DEFINITION ( 'international standard', 'config_control_design', 1994, #26 ) ;
#2 = VERTEX_POINT ( 'NONE', #241 ) ;
#3 = CLOSED_SHELL ( 'NONE', ( #39, #237, #227, #164, #160, #120 ) ) ;
#4 = PERSON_AND_ORGANIZATION_ROLE ( 'design_supplier' ) ;
#5 = CALENDAR_DATE ( 2021, 25, 10 ) ;
#6 = PERSON_AND_ORGANIZATION_ROLE ( 'design_owner' ) ;
#7 = PERSON_AND_ORGANIZATION ( #99, #20 ) ;
#8 = FACE_OUTER_BOUND ( 'NONE', #87, .T. ) ;
#9 = CC_DESIGN_PERSON_AND_ORGANIZATION_ASSIGNMENT ( #32, #198, ( #127 ) ) ;
#10 = VECTOR ( 'NONE', #223, 1000.000000000000000 ) ;
#11 = ORIENTED_EDGE ( 'NONE', *, *, #136, .T. ) ;
#12 = LOCAL_TIME ( 8, 57, 37.00000000000000000, #201 ) ;
#13 = LOCAL_TIME ( 8, 57, 37.00000000000000000, #65 ) ;
#14 = DIRECTION ( 'NONE',  ( -1.000000000000000000, 0.000000000000000000, 0.000000000000000000 ) ) ;
#15 = CARTESIAN_POINT ( 'NONE',  ( 0.000000000000000000, 0.000000000000000000, 0.000000000000000000 ) ) ;
#16 = VERTEX_POINT ( 'NONE', #228 ) ;
#17 = CARTESIAN_POINT ( 'NONE',  ( 0.000000000000000000, 0.000000000000000000, 5.000000000000000000 ) ) ;
#18 = CYLINDRICAL_SURFACE ( 'NONE', #242, 25.00000000000000000 ) ;
#19 = UNCERTAINTY_MEASURE_WITH_UNIT (LENGTH_MEASURE( 1.000000000000000082E-05 ), #98, 'distance_accuracy_value', 'NONE');
#20 = ORGANIZATION ( 'UNSPECIFIED', 'UNSPECIFIED', '' ) ;
#21 = LINE ( 'NONE', #82, #190 ) ;
#22 = PRODUCT_DEFINITION ( 'UNKNOWN', '', #49, #57 ) ;
#23 = EDGE_LOOP ( 'NONE', ( #147, #184, #11, #210 ) ) ;
#24 = FACE_OUTER_BOUND ( 'NONE', #114, .T. ) ;
#25 = CARTESIAN_POINT ( 'NONE',  ( 0.000000000000000000, 0.000000000000000000, 5.000000000000000000 ) ) ;
#26 = APPLICATION_CONTEXT ( 'configuration controlled 3d designs of mechanical parts and assemblies' ) ;
#27 = CARTESIAN_POINT ( 'NONE',  ( 0.000000000000000000, 0.000000000000000000, 0.000000000000000000 ) ) ;
#28 = CC_DESIGN_APPROVAL ( #135, ( #22 ) ) ;
#29 = COORDINATED_UNIVERSAL_TIME_OFFSET ( 9, 0, .AHEAD. ) ;
#30 = CIRCLE ( 'NONE', #165, 25.00000000000000000 ) ;
#31 = PRODUCT_DEFINITION_SHAPE ( 'NONE', 'NONE',  #22 ) ;
#32 = PERSON_AND_ORGANIZATION ( #99, #20 ) ;
#33 = PERSON_AND_ORGANIZATION ( #99, #20 ) ;
#34 = AXIS2_PLACEMENT_3D ( 'NONE', #56, #209, #14 ) ;
#35 = EDGE_CURVE ( 'NONE', #89, #16, #129, .T. ) ;
#36 = AXIS2_PLACEMENT_3D ( 'NONE', #95, #81, #43 ) ;
#37 = ORIENTED_EDGE ( 'NONE', *, *, #73, .T. ) ;
#38 = ORIENTED_EDGE ( 'NONE', *, *, #118, .T. ) ;
#39 = ADVANCED_FACE ( 'NONE', ( #8 ), #41, .F. ) ;
#40 = AXIS2_PLACEMENT_3D ( 'NONE', #101, #217, #112 ) ;
#41 = CYLINDRICAL_SURFACE ( 'NONE', #108, 6.500000000000000000 ) ;
#42 = APPROVAL ( #138, 'UNSPECIFIED' ) ;
#43 = DIRECTION ( 'NONE',  ( 1.000000000000000000, 0.000000000000000000, 0.000000000000000000 ) ) ;
#44 = CC_DESIGN_PERSON_AND_ORGANIZATION_ASSIGNMENT ( #142, #221, ( #22 ) ) ;
#45 = DIRECTION ( 'NONE',  ( 1.000000000000000000, 0.000000000000000000, 0.000000000000000000 ) ) ;
#46 = LOCAL_TIME ( 8, 57, 37.00000000000000000, #124 ) ;
#47 = PLANE ( 'NONE',  #40 ) ;
#48 = DATE_AND_TIME ( #139, #13 ) ;
#49 = PRODUCT_DEFINITION_FORMATION_WITH_SPECIFIED_SOURCE ( 'ANY', '', #167, .NOT_KNOWN. ) ;
#50 = PERSON_AND_ORGANIZATION ( #99, #20 ) ;
#51 = EDGE_CURVE ( 'NONE', #2, #222, #211, .T. ) ;
#52 = APPLICATION_CONTEXT ( 'configuration controlled 3d designs of mechanical parts and assemblies' ) ;
#53 = EDGE_LOOP ( 'NONE', ( #63, #61, #113, #68 ) ) ;
#54 = ORIENTED_EDGE ( 'NONE', *, *, #181, .F. ) ;
#55 = LOCAL_TIME ( 8, 57, 37.00000000000000000, #29 ) ;
#56 = CARTESIAN_POINT ( 'NONE',  ( 0.000000000000000000, 0.000000000000000000, 5.000000000000000000 ) ) ;
#57 = DESIGN_CONTEXT ( 'detailed design', #52, 'design' ) ;
#58 = CYLINDRICAL_SURFACE ( 'NONE', #119, 6.500000000000000000 ) ;
#59 = CIRCLE ( 'NONE', #67, 6.500000000000000000 ) ;
#60 = ORIENTED_EDGE ( 'NONE', *, *, #131, .F. ) ;
#61 = ORIENTED_EDGE ( 'NONE', *, *, #35, .T. ) ;
#62 = FACE_OUTER_BOUND ( 'NONE', #193, .T. ) ;
#63 = ORIENTED_EDGE ( 'NONE', *, *, #76, .F. ) ;
#64 = EDGE_LOOP ( 'NONE', ( #38, #240 ) ) ;
#65 = COORDINATED_UNIVERSAL_TIME_OFFSET ( 9, 0, .AHEAD. ) ;
#66 = DATE_AND_TIME ( #85, #115 ) ;
#67 = AXIS2_PLACEMENT_3D ( 'NONE', #27, #249, #137 ) ;
#68 = ORIENTED_EDGE ( 'NONE', *, *, #73, .F. ) ;
#69 = ORIENTED_EDGE ( 'NONE', *, *, #51, .F. ) ;
#70 = APPROVAL_DATE_TIME ( #179, #135 ) ;
#71 = PERSON_AND_ORGANIZATION ( #99, #20 ) ;
#72 = LINE ( 'NONE', #130, #10 ) ;
#73 = EDGE_CURVE ( 'NONE', #226, #146, #153, .T. ) ;
#74 = ORIENTED_EDGE ( 'NONE', *, *, #208, .T. ) ;
#75 = ORIENTED_EDGE ( 'NONE', *, *, #35, .F. ) ;
#76 = EDGE_CURVE ( 'NONE', #89, #226, #30, .T. ) ;
#77 = ORIENTED_EDGE ( 'NONE', *, *, #194, .T. ) ;
#78 = DIRECTION ( 'NONE',  ( 0.000000000000000000, 0.000000000000000000, 1.000000000000000000 ) ) ;
#79 = DIRECTION ( 'NONE',  ( 0.000000000000000000, 0.000000000000000000, -1.000000000000000000 ) ) ;
#80 = CARTESIAN_POINT ( 'NONE',  ( 0.000000000000000000, 0.000000000000000000, 5.000000000000000000 ) ) ;
#81 = DIRECTION ( 'NONE',  ( 0.000000000000000000, 0.000000000000000000, 1.000000000000000000 ) ) ;
#82 = CARTESIAN_POINT ( 'NONE',  ( 6.500000000000000000, 7.960204194457795477E-16, 5.000000000000000000 ) ) ;
#83 = FACE_OUTER_BOUND ( 'NONE', #23, .T. ) ;
#84 = FACE_BOUND ( 'NONE', #122, .T. ) ;
#85 = CALENDAR_DATE ( 2021, 25, 10 ) ;
#86 = APPROVAL_PERSON_ORGANIZATION ( #33, #154, #121 ) ;
#87 = EDGE_LOOP ( 'NONE', ( #248, #125, #54, #128 ) ) ;
#88 = APPROVAL_STATUS ( 'not_yet_approved' ) ;
#89 = VERTEX_POINT ( 'NONE', #247 ) ;
#90 = DATE_TIME_ROLE ( 'creation_date' ) ;
#91 = CARTESIAN_POINT ( 'NONE',  ( 0.000000000000000000, 0.000000000000000000, 5.000000000000000000 ) ) ;
#92 = AXIS2_PLACEMENT_3D ( 'NONE', #25, #100, #152 ) ;
#93 = CARTESIAN_POINT ( 'NONE',  ( 25.00000000000000000, 3.061616997868383043E-15, 5.000000000000000000 ) ) ;
#94 = ORIENTED_EDGE ( 'NONE', *, *, #181, .T. ) ;
#95 = CARTESIAN_POINT ( 'NONE',  ( 0.000000000000000000, 0.000000000000000000, 0.000000000000000000 ) ) ;
#96 = DIRECTION ( 'NONE',  ( 0.000000000000000000, 0.000000000000000000, -1.000000000000000000 ) ) ;
#97 = DIRECTION ( 'NONE',  ( -1.000000000000000000, 0.000000000000000000, 0.000000000000000000 ) ) ;
#98 =( LENGTH_UNIT ( ) NAMED_UNIT ( * ) SI_UNIT ( .MILLI., .METRE. ) );
#99 = PERSON ( 'UNSPECIFIED', 'UNSPECIFIED', 'UNSPECIFIED', ('UNSPECIFIED'), ('UNSPECIFIED'), ('UNSPECIFIED') ) ;
#100 = DIRECTION ( 'NONE',  ( 0.000000000000000000, 0.000000000000000000, 1.000000000000000000 ) ) ;
#101 = CARTESIAN_POINT ( 'NONE',  ( 0.000000000000000000, 0.000000000000000000, 5.000000000000000000 ) ) ;
#102 =( GEOMETRIC_REPRESENTATION_CONTEXT ( 3 ) GLOBAL_UNCERTAINTY_ASSIGNED_CONTEXT ( ( #19 ) ) GLOBAL_UNIT_ASSIGNED_CONTEXT ( ( #98, #171, #173 ) ) REPRESENTATION_CONTEXT ( 'NONE', 'WORKASPACE' ) );
#103 = DIRECTION ( 'NONE',  ( 0.000000000000000000, 0.000000000000000000, 1.000000000000000000 ) ) ;
#104 = APPROVAL_DATE_TIME ( #48, #42 ) ;
#105 = EDGE_LOOP ( 'NONE', ( #94, #74 ) ) ;
#106 = MANIFOLD_SOLID_BREP ( 'Imported1', #3 ) ;
#107 = CIRCLE ( 'NONE', #238, 6.500000000000000000 ) ;
#108 = AXIS2_PLACEMENT_3D ( 'NONE', #91, #199, #97 ) ;
#109 = COORDINATED_UNIVERSAL_TIME_OFFSET ( 9, 0, .AHEAD. ) ;
#110 = VERTEX_POINT ( 'NONE', #196 ) ;
#111 = CARTESIAN_POINT ( 'NONE',  ( -25.00000000000000000, 0.000000000000000000, 0.000000000000000000 ) ) ;
#112 = DIRECTION ( 'NONE',  ( 1.000000000000000000, 0.000000000000000000, 0.000000000000000000 ) ) ;
#113 = ORIENTED_EDGE ( 'NONE', *, *, #229, .T. ) ;
#114 = EDGE_LOOP ( 'NONE', ( #140, #207 ) ) ;
#115 = LOCAL_TIME ( 8, 57, 37.00000000000000000, #109 ) ;
#116 = PRODUCT_RELATED_PRODUCT_CATEGORY ( 'detail', '', ( #167 ) ) ;
#117 = DIRECTION ( 'NONE',  ( 0.000000000000000000, 0.000000000000000000, 1.000000000000000000 ) ) ;
#118 = EDGE_CURVE ( 'NONE', #226, #89, #203, .T. ) ;
#119 = AXIS2_PLACEMENT_3D ( 'NONE', #17, #96, #243 ) ;
#120 = ADVANCED_FACE ( 'NONE', ( #83 ), #58, .F. ) ;
#121 = APPROVAL_ROLE ( '' ) ;
#122 = EDGE_LOOP ( 'NONE', ( #60, #69 ) ) ;
#123 = APPROVAL_STATUS ( 'not_yet_approved' ) ;
#124 = COORDINATED_UNIVERSAL_TIME_OFFSET ( 9, 0, .AHEAD. ) ;
#125 = ORIENTED_EDGE ( 'NONE', *, *, #195, .T. ) ;
#126 = MECHANICAL_CONTEXT ( 'NONE', #26, 'mechanical' ) ;
#127 = SECURITY_CLASSIFICATION ( '', '', #177 ) ;
#128 = ORIENTED_EDGE ( 'NONE', *, *, #136, .F. ) ;
#129 = LINE ( 'NONE', #93, #151 ) ;
#130 = CARTESIAN_POINT ( 'NONE',  ( -6.500000000000000000, 0.000000000000000000, 5.000000000000000000 ) ) ;
#131 = EDGE_CURVE ( 'NONE', #222, #2, #245, .T. ) ;
#132 = CARTESIAN_POINT ( 'NONE',  ( 0.000000000000000000, 0.000000000000000000, 5.000000000000000000 ) ) ;
#133 = DIRECTION ( 'NONE',  ( 0.000000000000000000, 0.000000000000000000, 1.000000000000000000 ) ) ;
#134 = CARTESIAN_POINT ( 'NONE',  ( 0.000000000000000000, 0.000000000000000000, 0.000000000000000000 ) ) ;
#135 = APPROVAL ( #123, 'UNSPECIFIED' ) ;
#136 = EDGE_CURVE ( 'NONE', #222, #110, #72, .T. ) ;
#137 = DIRECTION ( 'NONE',  ( 1.000000000000000000, 0.000000000000000000, 0.000000000000000000 ) ) ;
#138 = APPROVAL_STATUS ( 'not_yet_approved' ) ;
#139 = CALENDAR_DATE ( 2021, 25, 10 ) ;
#140 = ORIENTED_EDGE ( 'NONE', *, *, #194, .F. ) ;
#141 = DIRECTION ( 'NONE',  ( 1.000000000000000000, 0.000000000000000000, 0.000000000000000000 ) ) ;
#142 = PERSON_AND_ORGANIZATION ( #99, #20 ) ;
#143 = DIRECTION ( 'NONE',  ( 1.000000000000000000, 0.000000000000000000, 0.000000000000000000 ) ) ;
#144 = PERSON_AND_ORGANIZATION ( #99, #20 ) ;
#145 = CC_DESIGN_APPROVAL ( #42, ( #127 ) ) ;
#146 = VERTEX_POINT ( 'NONE', #111 ) ;
#147 = ORIENTED_EDGE ( 'NONE', *, *, #195, .F. ) ;
#148 = DIRECTION ( 'NONE',  ( 1.000000000000000000, 0.000000000000000000, 0.000000000000000000 ) ) ;
#149 = AXIS2_PLACEMENT_3D ( 'NONE', #169, #155, #216 ) ;
#150 = CC_DESIGN_DATE_AND_TIME_ASSIGNMENT ( #204, #90, ( #22 ) ) ;
#151 = VECTOR ( 'NONE', #215, 1000.000000000000000 ) ;
#152 = DIRECTION ( 'NONE',  ( 1.000000000000000000, 0.000000000000000000, 0.000000000000000000 ) ) ;
#153 = LINE ( 'NONE', #172, #168 ) ;
#154 = APPROVAL ( #88, 'UNSPECIFIED' ) ;
#155 = DIRECTION ( 'NONE',  ( 0.000000000000000000, 0.000000000000000000, 1.000000000000000000 ) ) ;
#156 = VERTEX_POINT ( 'NONE', #185 ) ;
#157 = DIRECTION ( 'NONE',  ( 0.000000000000000000, 0.000000000000000000, -1.000000000000000000 ) ) ;
#158 = DATE_TIME_ROLE ( 'classification_date' ) ;
#159 = CARTESIAN_POINT ( 'NONE',  ( -25.00000000000000000, 0.000000000000000000, 5.000000000000000000 ) ) ;
#160 = ADVANCED_FACE ( 'NONE', ( #62 ), #18, .T. ) ;
#161 = CALENDAR_DATE ( 2021, 25, 10 ) ;
#162 = APPROVAL_PERSON_ORGANIZATION ( #144, #135, #202 ) ;
#163 = ADVANCED_BREP_SHAPE_REPRESENTATION ( 'bj623-12002', ( #106, #176 ), #102 ) ;
#164 = ADVANCED_FACE ( 'NONE', ( #24, #246 ), #244, .F. ) ;
#165 = AXIS2_PLACEMENT_3D ( 'NONE', #230, #117, #192 ) ;
#166 = CC_DESIGN_SECURITY_CLASSIFICATION ( #127, ( #49 ) ) ;
#167 = PRODUCT ( 'bj623-12002', 'bj623-12002', '', ( #126 ) ) ;
#168 = VECTOR ( 'NONE', #231, 1000.000000000000000 ) ;
#169 = CARTESIAN_POINT ( 'NONE',  ( 0.000000000000000000, 0.000000000000000000, 0.000000000000000000 ) ) ;
#170 = CC_DESIGN_PERSON_AND_ORGANIZATION_ASSIGNMENT ( #7, #4, ( #49 ) ) ;
#171 =( NAMED_UNIT ( * ) PLANE_ANGLE_UNIT ( ) SI_UNIT ( $, .RADIAN. ) );
#172 = CARTESIAN_POINT ( 'NONE',  ( -25.00000000000000000, 0.000000000000000000, 5.000000000000000000 ) ) ;
#173 =( NAMED_UNIT ( * ) SI_UNIT ( $, .STERADIAN. ) SOLID_ANGLE_UNIT ( ) );
#174 = FACE_OUTER_BOUND ( 'NONE', #64, .T. ) ;
#175 = APPROVAL_DATE_TIME ( #66, #154 ) ;
#176 = AXIS2_PLACEMENT_3D ( 'NONE', #197, #103, #141 ) ;
#177 = SECURITY_CLASSIFICATION_LEVEL ( 'unclassified' ) ;
#178 = AXIS2_PLACEMENT_3D ( 'NONE', #80, #78, #233 ) ;
#179 = DATE_AND_TIME ( #5, #55 ) ;
#180 = SHAPE_DEFINITION_REPRESENTATION ( #31, #163 ) ;
#181 = EDGE_CURVE ( 'NONE', #110, #156, #107, .T. ) ;
#182 = APPROVAL_PERSON_ORGANIZATION ( #232, #42, #218 ) ;
#183 = PERSON_AND_ORGANIZATION_ROLE ( 'creator' ) ;
#184 = ORIENTED_EDGE ( 'NONE', *, *, #51, .T. ) ;
#185 = CARTESIAN_POINT ( 'NONE',  ( 6.500000000000000000, 7.960204194457795477E-16, 0.000000000000000000 ) ) ;
#186 = DIRECTION ( 'NONE',  ( 0.000000000000000000, 0.000000000000000000, 1.000000000000000000 ) ) ;
#187 = ORIENTED_EDGE ( 'NONE', *, *, #118, .F. ) ;
#188 = FACE_OUTER_BOUND ( 'NONE', #53, .T. ) ;
#189 = CC_DESIGN_PERSON_AND_ORGANIZATION_ASSIGNMENT ( #71, #6, ( #167 ) ) ;
#190 = VECTOR ( 'NONE', #157, 1000.000000000000000 ) ;
#191 = DIRECTION ( 'NONE',  ( -1.000000000000000000, 0.000000000000000000, 0.000000000000000000 ) ) ;
#192 = DIRECTION ( 'NONE',  ( 1.000000000000000000, 0.000000000000000000, 0.000000000000000000 ) ) ;
#193 = EDGE_LOOP ( 'NONE', ( #75, #187, #37, #77 ) ) ;
#194 = EDGE_CURVE ( 'NONE', #146, #16, #220, .T. ) ;
#195 = EDGE_CURVE ( 'NONE', #2, #156, #21, .T. ) ;
#196 = CARTESIAN_POINT ( 'NONE',  ( -6.500000000000000000, 0.000000000000000000, 0.000000000000000000 ) ) ;
#197 = CARTESIAN_POINT ( 'NONE',  ( 0.000000000000000000, 0.000000000000000000, 0.000000000000000000 ) ) ;
#198 = PERSON_AND_ORGANIZATION_ROLE ( 'classification_officer' ) ;
#199 = DIRECTION ( 'NONE',  ( 0.000000000000000000, 0.000000000000000000, -1.000000000000000000 ) ) ;
#200 = CC_DESIGN_APPROVAL ( #154, ( #49 ) ) ;
#201 = COORDINATED_UNIVERSAL_TIME_OFFSET ( 9, 0, .AHEAD. ) ;
#202 = APPROVAL_ROLE ( '' ) ;
#203 = CIRCLE ( 'NONE', #92, 25.00000000000000000 ) ;
#204 = DATE_AND_TIME ( #206, #46 ) ;
#205 = CC_DESIGN_DATE_AND_TIME_ASSIGNMENT ( #235, #158, ( #127 ) ) ;
#206 = CALENDAR_DATE ( 2021, 25, 10 ) ;
#207 = ORIENTED_EDGE ( 'NONE', *, *, #229, .F. ) ;
#208 = EDGE_CURVE ( 'NONE', #156, #110, #59, .T. ) ;
#209 = DIRECTION ( 'NONE',  ( 0.000000000000000000, 0.000000000000000000, -1.000000000000000000 ) ) ;
#210 = ORIENTED_EDGE ( 'NONE', *, *, #208, .F. ) ;
#211 = CIRCLE ( 'NONE', #178, 6.500000000000000000 ) ;
#212 = CIRCLE ( 'NONE', #225, 25.00000000000000000 ) ;
#213 = CARTESIAN_POINT ( 'NONE',  ( 0.000000000000000000, 0.000000000000000000, 5.000000000000000000 ) ) ;
#214 = DIRECTION ( 'NONE',  ( 0.000000000000000000, 0.000000000000000000, 1.000000000000000000 ) ) ;
#215 = DIRECTION ( 'NONE',  ( 0.000000000000000000, 0.000000000000000000, -1.000000000000000000 ) ) ;
#216 = DIRECTION ( 'NONE',  ( 1.000000000000000000, 0.000000000000000000, 0.000000000000000000 ) ) ;
#217 = DIRECTION ( 'NONE',  ( 0.000000000000000000, 0.000000000000000000, 1.000000000000000000 ) ) ;
#218 = APPROVAL_ROLE ( '' ) ;
#219 = CC_DESIGN_PERSON_AND_ORGANIZATION_ASSIGNMENT ( #50, #183, ( #49 ) ) ;
#220 = CIRCLE ( 'NONE', #149, 25.00000000000000000 ) ;
#221 = PERSON_AND_ORGANIZATION_ROLE ( 'creator' ) ;
#222 = VERTEX_POINT ( 'NONE', #234 ) ;
#223 = DIRECTION ( 'NONE',  ( 0.000000000000000000, 0.000000000000000000, -1.000000000000000000 ) ) ;
#224 = CYLINDRICAL_SURFACE ( 'NONE', #34, 25.00000000000000000 ) ;
#225 = AXIS2_PLACEMENT_3D ( 'NONE', #15, #186, #148 ) ;
#226 = VERTEX_POINT ( 'NONE', #159 ) ;
#227 = ADVANCED_FACE ( 'NONE', ( #174, #84 ), #47, .T. ) ;
#228 = CARTESIAN_POINT ( 'NONE',  ( 25.00000000000000000, 3.061616997868383043E-15, 0.000000000000000000 ) ) ;
#229 = EDGE_CURVE ( 'NONE', #16, #146, #212, .T. ) ;
#230 = CARTESIAN_POINT ( 'NONE',  ( 0.000000000000000000, 0.000000000000000000, 5.000000000000000000 ) ) ;
#231 = DIRECTION ( 'NONE',  ( 0.000000000000000000, 0.000000000000000000, -1.000000000000000000 ) ) ;
#232 = PERSON_AND_ORGANIZATION ( #99, #20 ) ;
#233 = DIRECTION ( 'NONE',  ( 1.000000000000000000, 0.000000000000000000, 0.000000000000000000 ) ) ;
#234 = CARTESIAN_POINT ( 'NONE',  ( -6.500000000000000000, 0.000000000000000000, 5.000000000000000000 ) ) ;
#235 = DATE_AND_TIME ( #161, #12 ) ;
#236 = APPLICATION_PROTOCOL_DEFINITION ( 'international standard', 'config_control_design', 1994, #52 ) ;
#237 = ADVANCED_FACE ( 'NONE', ( #188 ), #224, .T. ) ;
#238 = AXIS2_PLACEMENT_3D ( 'NONE', #134, #133, #45 ) ;
#239 = AXIS2_PLACEMENT_3D ( 'NONE', #132, #214, #143 ) ;
#240 = ORIENTED_EDGE ( 'NONE', *, *, #76, .T. ) ;
#241 = CARTESIAN_POINT ( 'NONE',  ( 6.500000000000000000, 7.960204194457795477E-16, 5.000000000000000000 ) ) ;
#242 = AXIS2_PLACEMENT_3D ( 'NONE', #213, #79, #191 ) ;
#243 = DIRECTION ( 'NONE',  ( -1.000000000000000000, 0.000000000000000000, 0.000000000000000000 ) ) ;
#244 = PLANE ( 'NONE',  #36 ) ;
#245 = CIRCLE ( 'NONE', #239, 6.500000000000000000 ) ;
#246 = FACE_BOUND ( 'NONE', #105, .T. ) ;
#247 = CARTESIAN_POINT ( 'NONE',  ( 25.00000000000000000, 3.061616997868383043E-15, 5.000000000000000000 ) ) ;
#248 = ORIENTED_EDGE ( 'NONE', *, *, #131, .T. ) ;
#249 = DIRECTION ( 'NONE',  ( 0.000000000000000000, 0.000000000000000000, 1.000000000000000000 ) ) ;
ENDSEC;
END-ISO-10303-21;
