ISO-10303-21;
HEADER;
FILE_DESCRIPTION (( 'STEP AP203' ),
    '1' );
FILE_NAME ('bj720-16001.STEP',
    '2021-10-24T23:59:17',
    ( '' ),
    ( '' ),
    'SwSTEP 2.0',
    'SolidWorks 2020',
    '' );
FILE_SCHEMA (( 'CONFIG_CONTROL_DESIGN' ));
ENDSEC;

DATA;
#1 = PERSON_AND_ORGANIZATION ( #221, #34 ) ;
#2 = ORIENTED_EDGE ( 'NONE', *, *, #173, .F. ) ;
#3 = EDGE_LOOP ( 'NONE', ( #223, #39, #139, #259 ) ) ;
#4 = MECHANICAL_CONTEXT ( 'NONE', #8, 'mechanical' ) ;
#5 = ADVANCED_FACE ( 'NONE', ( #287 ), #151, .T. ) ;
#6 = ORIENTED_EDGE ( 'NONE', *, *, #181, .F. ) ;
#7 = ORIENTED_EDGE ( 'NONE', *, *, #173, .T. ) ;
#8 = APPLICATION_CONTEXT ( 'configuration controlled 3d designs of mechanical parts and assemblies' ) ;
#9 = ORIENTED_EDGE ( 'NONE', *, *, #281, .F. ) ;
#10 = EDGE_CURVE ( 'NONE', #209, #78, #117, .T. ) ;
#11 = CC_DESIGN_APPROVAL ( #286, ( #165 ) ) ;
#12 = APPROVAL_PERSON_ORGANIZATION ( #1, #213, #111 ) ;
#13 = DIRECTION ( 'NONE',  ( 0.000000000000000000, 0.000000000000000000, 1.000000000000000000 ) ) ;
#14 = CIRCLE ( 'NONE', #299, 5.690598923241479312 ) ;
#15 = APPROVAL_PERSON_ORGANIZATION ( #27, #286, #266 ) ;
#16 = DIRECTION ( 'NONE',  ( 0.000000000000000000, 0.000000000000000000, 1.000000000000000000 ) ) ;
#18 = DIRECTION ( 'NONE',  ( -1.000000000000000000, 0.000000000000000000, 0.000000000000000000 ) ) ;
#17 = AXIS2_PLACEMENT_3D ( 'NONE', #229, #175, #70 ) ;
#19 = ADVANCED_FACE ( 'NONE', ( #41 ), #186, .F. ) ;
#20 = DIRECTION ( 'NONE',  ( -1.000000000000000000, 0.000000000000000000, 0.000000000000000000 ) ) ;
#21 = CARTESIAN_POINT ( 'NONE',  ( -2.500000000000000000, 3.061616997868383141E-16, 42.00000000000000000 ) ) ;
#22 = CC_DESIGN_APPROVAL ( #213, ( #277 ) ) ;
#23 = EDGE_CURVE ( 'NONE', #354, #78, #321, .T. ) ;
#24 = DATE_AND_TIME ( #81, #226 ) ;
#25 = ORIENTED_EDGE ( 'NONE', *, *, #55, .T. ) ;
#26 = EDGE_CURVE ( 'NONE', #333, #217, #314, .T. ) ;
#27 = PERSON_AND_ORGANIZATION ( #221, #34 ) ;
#28 = ORIENTED_EDGE ( 'NONE', *, *, #339, .F. ) ;
#29 = DIRECTION ( 'NONE',  ( 1.000000000000000000, 0.000000000000000000, 0.000000000000000000 ) ) ;
#30 = DATE_AND_TIME ( #131, #232 ) ;
#31 = ORIENTED_EDGE ( 'NONE', *, *, #153, .T. ) ;
#32 = VECTOR ( 'NONE', #189, 1000.000000000000114 ) ;
#33 = CARTESIAN_POINT ( 'NONE',  ( -2.500000000000000000, 3.061616997868383141E-16, 50.00000000000000000 ) ) ;
#34 = ORGANIZATION ( 'UNSPECIFIED', 'UNSPECIFIED', '' ) ;
#35 = VECTOR ( 'NONE', #57, 1000.000000000000114 ) ;
#36 = AXIS2_PLACEMENT_3D ( 'NONE', #317, #16, #242 ) ;
#37 = CARTESIAN_POINT ( 'NONE',  ( 0.000000000000000000, 0.000000000000000000, 32.00000000000000000 ) ) ;
#38 = CARTESIAN_POINT ( 'NONE',  ( 0.000000000000000000, 0.000000000000000000, 50.00000000000000000 ) ) ;
#39 = ORIENTED_EDGE ( 'NONE', *, *, #50, .T. ) ;
#40 = CIRCLE ( 'NONE', #241, 2.500000000000000000 ) ;
#41 = FACE_OUTER_BOUND ( 'NONE', #49, .T. ) ;
#42 = DATE_TIME_ROLE ( 'classification_date' ) ;
#43 = FACE_OUTER_BOUND ( 'NONE', #59, .T. ) ;
#44 = DIRECTION ( 'NONE',  ( 1.000000000000000000, 0.000000000000000000, 0.000000000000000000 ) ) ;
#45 =( NAMED_UNIT ( * ) PLANE_ANGLE_UNIT ( ) SI_UNIT ( $, .RADIAN. ) );
#46 = CC_DESIGN_SECURITY_CLASSIFICATION ( #165, ( #208 ) ) ;
#47 = DIRECTION ( 'NONE',  ( 0.000000000000000000, 0.000000000000000000, 1.000000000000000000 ) ) ;
#48 = COORDINATED_UNIVERSAL_TIME_OFFSET ( 9, 0, .AHEAD. ) ;
#49 = EDGE_LOOP ( 'NONE', ( #28, #148, #31, #56 ) ) ;
#50 = EDGE_CURVE ( 'NONE', #152, #247, #161, .T. ) ;
#51 = ORIENTED_EDGE ( 'NONE', *, *, #67, .F. ) ;
#52 = PERSON_AND_ORGANIZATION ( #221, #34 ) ;
#53 = PRODUCT_DEFINITION_SHAPE ( 'NONE', 'NONE',  #277 ) ;
#54 = DIRECTION ( 'NONE',  ( 0.000000000000000000, 0.000000000000000000, 1.000000000000000000 ) ) ;
#55 = EDGE_CURVE ( 'NONE', #152, #193, #166, .T. ) ;
#56 = ORIENTED_EDGE ( 'NONE', *, *, #26, .F. ) ;
#57 = DIRECTION ( 'NONE',  ( -0.5000000000000003331, 0.000000000000000000, -0.8660254037844383745 ) ) ;
#58 = LINE ( 'NONE', #33, #144 ) ;
#59 = EDGE_LOOP ( 'NONE', ( #51, #275, #269, #252 ) ) ;
#60 = AXIS2_PLACEMENT_3D ( 'NONE', #290, #263, #20 ) ;
#61 = AXIS2_PLACEMENT_3D ( 'NONE', #158, #294, #260 ) ;
#62 = CIRCLE ( 'NONE', #239, 6.845299461620750314 ) ;
#63 = CARTESIAN_POINT ( 'NONE',  ( -2.500000000000000000, 3.061616997868383141E-16, 32.00000000000000000 ) ) ;
#64 = LOCAL_TIME ( 8, 59, 17.00000000000000000, #162 ) ;
#65 = CARTESIAN_POINT ( 'NONE',  ( 0.000000000000000000, 0.000000000000000000, 2.000000000000000000 ) ) ;
#66 = FACE_OUTER_BOUND ( 'NONE', #172, .T. ) ;
#67 = EDGE_CURVE ( 'NONE', #354, #327, #14, .T. ) ;
#68 = DIRECTION ( 'NONE',  ( 1.000000000000000000, 0.000000000000000000, 0.000000000000000000 ) ) ;
#69 = DIRECTION ( 'NONE',  ( 0.000000000000000000, 0.000000000000000000, 1.000000000000000000 ) ) ;
#70 = DIRECTION ( 'NONE',  ( 1.000000000000000000, 0.000000000000000000, 0.000000000000000000 ) ) ;
#71 = DIRECTION ( 'NONE',  ( 0.000000000000000000, 0.000000000000000000, 1.000000000000000000 ) ) ;
#72 = CYLINDRICAL_SURFACE ( 'NONE', #224, 8.000000000000000000 ) ;
#73 = LINE ( 'NONE', #191, #330 ) ;
#74 = CARTESIAN_POINT ( 'NONE',  ( 2.500000000000000000, 0.000000000000000000, 32.00000000000000000 ) ) ;
#75 = CARTESIAN_POINT ( 'NONE',  ( 8.000000000000000000, 0.000000000000000000, 38.00000000000000000 ) ) ;
#76 = DIRECTION ( 'NONE',  ( 0.000000000000000000, 0.000000000000000000, 1.000000000000000000 ) ) ;
#77 = ADVANCED_FACE ( 'NONE', ( #203, #307 ), #233, .F. ) ;
#78 = VERTEX_POINT ( 'NONE', #75 ) ;
#79 = CARTESIAN_POINT ( 'NONE',  ( 8.000000000000000000, 0.000000000000000000, 2.000000000000000000 ) ) ;
#80 = VECTOR ( 'NONE', #86, 1000.000000000000000 ) ;
#81 = CALENDAR_DATE ( 2021, 25, 10 ) ;
#82 = DIRECTION ( 'NONE',  ( 0.000000000000000000, 0.000000000000000000, 1.000000000000000000 ) ) ;
#83 = ORIENTED_EDGE ( 'NONE', *, *, #305, .T. ) ;
#84 = AXIS2_PLACEMENT_3D ( 'NONE', #334, #87, #119 ) ;
#85 = AXIS2_PLACEMENT_3D ( 'NONE', #253, #303, #29 ) ;
#86 = DIRECTION ( 'NONE',  ( 0.4999999999999998890, 0.000000000000000000, 0.8660254037844387076 ) ) ;
#87 = DIRECTION ( 'NONE',  ( 0.000000000000000000, 0.000000000000000000, 1.000000000000000000 ) ) ;
#88 = PLANE ( 'NONE',  #309 ) ;
#89 = ADVANCED_FACE ( 'NONE', ( #43 ), #150, .T. ) ;
#90 = LOCAL_TIME ( 8, 59, 17.00000000000000000, #227 ) ;
#91 = EDGE_CURVE ( 'NONE', #327, #209, #346, .T. ) ;
#92 = FACE_OUTER_BOUND ( 'NONE', #167, .T. ) ;
#93 = DIRECTION ( 'NONE',  ( 1.000000000000000000, 0.000000000000000000, 0.000000000000000000 ) ) ;
#94 = CC_DESIGN_PERSON_AND_ORGANIZATION_ASSIGNMENT ( #245, #163, ( #208 ) ) ;
#95 = MANIFOLD_SOLID_BREP ( 'Imported1', #177 ) ;
#96 = CARTESIAN_POINT ( 'NONE',  ( 6.845299461620750314, 0.000000000000000000, 0.000000000000000000 ) ) ;
#97 = DIRECTION ( 'NONE',  ( 1.000000000000000000, 0.000000000000000000, 0.000000000000000000 ) ) ;
#98 = CONICAL_SURFACE ( 'NONE', #127, 8.000000000000000000, 0.5235987755982987046 ) ;
#99 = ADVANCED_FACE ( 'NONE', ( #251 ), #114, .T. ) ;
#100 = DIRECTION ( 'NONE',  ( 0.000000000000000000, 0.000000000000000000, 1.000000000000000000 ) ) ;
#101 = ORIENTED_EDGE ( 'NONE', *, *, #67, .T. ) ;
#102 = SHAPE_DEFINITION_REPRESENTATION ( #53, #258 ) ;
#103 = SECURITY_CLASSIFICATION_LEVEL ( 'unclassified' ) ;
#104 = DIRECTION ( 'NONE',  ( 0.000000000000000000, 0.000000000000000000, 1.000000000000000000 ) ) ;
#105 = PERSON_AND_ORGANIZATION ( #221, #34 ) ;
#106 = APPROVAL_STATUS ( 'not_yet_approved' ) ;
#107 = ORIENTED_EDGE ( 'NONE', *, *, #91, .T. ) ;
#108 = UNCERTAINTY_MEASURE_WITH_UNIT (LENGTH_MEASURE( 1.000000000000000082E-05 ), #134, 'distance_accuracy_value', 'NONE');
#109 = CARTESIAN_POINT ( 'NONE',  ( 8.000000000000000000, 0.000000000000000000, 2.000000000000000000 ) ) ;
#110 = AXIS2_PLACEMENT_3D ( 'NONE', #256, #76, #120 ) ;
#111 = APPROVAL_ROLE ( '' ) ;
#112 = CC_DESIGN_PERSON_AND_ORGANIZATION_ASSIGNMENT ( #52, #174, ( #350 ) ) ;
#113 = VERTEX_POINT ( 'NONE', #63 ) ;
#114 = CYLINDRICAL_SURFACE ( 'NONE', #84, 8.000000000000000000 ) ;
#115 = PRODUCT_RELATED_PRODUCT_CATEGORY ( 'detail', '', ( #350 ) ) ;
#116 = ORIENTED_EDGE ( 'NONE', *, *, #153, .F. ) ;
#117 = CIRCLE ( 'NONE', #284, 8.000000000000000000 ) ;
#118 = CIRCLE ( 'NONE', #268, 2.500000000000000000 ) ;
#119 = DIRECTION ( 'NONE',  ( 1.000000000000000000, 0.000000000000000000, 0.000000000000000000 ) ) ;
#120 = DIRECTION ( 'NONE',  ( 1.000000000000000000, 0.000000000000000000, 0.000000000000000000 ) ) ;
#121 = DIRECTION ( 'NONE',  ( -0.4999999999999998890, 6.123233995736764803E-17, 0.8660254037844387076 ) ) ;
#122 = CARTESIAN_POINT ( 'NONE',  ( 0.000000000000000000, 0.000000000000000000, 2.000000000000000000 ) ) ;
#123 = DIRECTION ( 'NONE',  ( 1.000000000000000000, 0.000000000000000000, 0.000000000000000000 ) ) ;
#124 = DIRECTION ( 'NONE',  ( 1.000000000000000000, 0.000000000000000000, 0.000000000000000000 ) ) ;
#125 = DIRECTION ( 'NONE',  ( 0.000000000000000000, 0.000000000000000000, 1.000000000000000000 ) ) ;
#126 = ORIENTED_EDGE ( 'NONE', *, *, #281, .T. ) ;
#127 = AXIS2_PLACEMENT_3D ( 'NONE', #65, #211, #68 ) ;
#128 = DIRECTION ( 'NONE',  ( 0.000000000000000000, 0.000000000000000000, 1.000000000000000000 ) ) ;
#129 = DIRECTION ( 'NONE',  ( 0.000000000000000000, 0.000000000000000000, -1.000000000000000000 ) ) ;
#130 = CARTESIAN_POINT ( 'NONE',  ( 0.000000000000000000, 0.000000000000000000, 32.00000000000000000 ) ) ;
#131 = CALENDAR_DATE ( 2021, 25, 10 ) ;
#132 = COORDINATED_UNIVERSAL_TIME_OFFSET ( 9, 0, .AHEAD. ) ;
#133 = CARTESIAN_POINT ( 'NONE',  ( -8.000000000000000000, 0.000000000000000000, 38.00000000000000000 ) ) ;
#134 =( LENGTH_UNIT ( ) NAMED_UNIT ( * ) SI_UNIT ( .MILLI., .METRE. ) );
#135 = CARTESIAN_POINT ( 'NONE',  ( 0.000000000000000000, 0.000000000000000000, 0.000000000000000000 ) ) ;
#136 = ORIENTED_EDGE ( 'NONE', *, *, #23, .F. ) ;
#137 = LINE ( 'NONE', #109, #80 ) ;
#138 = DATE_AND_TIME ( #220, #210 ) ;
#139 = ORIENTED_EDGE ( 'NONE', *, *, #305, .F. ) ;
#140 = CARTESIAN_POINT ( 'NONE',  ( -8.000000000000000000, 9.797174393178825657E-16, 2.000000000000000000 ) ) ;
#141 = APPROVAL_ROLE ( '' ) ;
#142 = ADVANCED_FACE ( 'NONE', ( #66 ), #154, .F. ) ;
#143 = ORIENTED_EDGE ( 'NONE', *, *, #248, .F. ) ;
#144 = VECTOR ( 'NONE', #82, 1000.000000000000000 ) ;
#145 = AXIS2_PLACEMENT_3D ( 'NONE', #205, #71, #244 ) ;
#146 = DIRECTION ( 'NONE',  ( 1.000000000000000000, 0.000000000000000000, 0.000000000000000000 ) ) ;
#147 = DIRECTION ( 'NONE',  ( 0.000000000000000000, 0.000000000000000000, -1.000000000000000000 ) ) ;
#148 = ORIENTED_EDGE ( 'NONE', *, *, #178, .T. ) ;
#149 = CIRCLE ( 'NONE', #110, 2.500000000000000000 ) ;
#150 = CONICAL_SURFACE ( 'NONE', #344, 8.000000000000000000, 0.5235987755982992597 ) ;
#151 = PLANE ( 'NONE',  #188 ) ;
#152 = VERTEX_POINT ( 'NONE', #214 ) ;
#153 = EDGE_CURVE ( 'NONE', #254, #217, #149, .T. ) ;
#154 = CYLINDRICAL_SURFACE ( 'NONE', #61, 2.500000000000000000 ) ;
#155 = AXIS2_PLACEMENT_3D ( 'NONE', #135, #54, #271 ) ;
#156 = CC_DESIGN_PERSON_AND_ORGANIZATION_ASSIGNMENT ( #198, #292, ( #208 ) ) ;
#157 = CARTESIAN_POINT ( 'NONE',  ( 8.000000000000000000, 9.797174393178825657E-16, 38.00000000000000000 ) ) ;
#158 = CARTESIAN_POINT ( 'NONE',  ( 0.000000000000000000, 0.000000000000000000, 50.00000000000000000 ) ) ;
#159 = APPLICATION_CONTEXT ( 'configuration controlled 3d designs of mechanical parts and assemblies' ) ;
#160 = DIRECTION ( 'NONE',  ( 0.000000000000000000, 0.000000000000000000, 1.000000000000000000 ) ) ;
#161 = LINE ( 'NONE', #316, #225 ) ;
#162 = COORDINATED_UNIVERSAL_TIME_OFFSET ( 9, 0, .AHEAD. ) ;
#163 = PERSON_AND_ORGANIZATION_ROLE ( 'creator' ) ;
#164 = DIRECTION ( 'NONE',  ( 0.000000000000000000, 0.000000000000000000, 1.000000000000000000 ) ) ;
#165 = SECURITY_CLASSIFICATION ( '', '', #103 ) ;
#166 = CIRCLE ( 'NONE', #236, 6.845299461620750314 ) ;
#167 = EDGE_LOOP ( 'NONE', ( #195, #340 ) ) ;
#168 = APPLICATION_PROTOCOL_DEFINITION ( 'international standard', 'config_control_design', 1994, #8 ) ;
#169 = EDGE_LOOP ( 'NONE', ( #9, #240, #238, #231 ) ) ;
#170 = CARTESIAN_POINT ( 'NONE',  ( -8.000000000000000000, 9.797174393178825657E-16, 38.00000000000000000 ) ) ;
#171 = APPLICATION_PROTOCOL_DEFINITION ( 'international standard', 'config_control_design', 1994, #159 ) ;
#172 = EDGE_LOOP ( 'NONE', ( #228, #331, #276, #7 ) ) ;
#173 = EDGE_CURVE ( 'NONE', #217, #254, #257, .T. ) ;
#174 = PERSON_AND_ORGANIZATION_ROLE ( 'design_owner' ) ;
#175 = DIRECTION ( 'NONE',  ( 0.000000000000000000, 0.000000000000000000, 1.000000000000000000 ) ) ;
#176 = CARTESIAN_POINT ( 'NONE',  ( -5.690598923241479312, 0.000000000000000000, 42.00000000000000000 ) ) ;
#177 = CLOSED_SHELL ( 'NONE', ( #19, #89, #99, #197, #341, #335, #342, #308, #77, #142, #5 ) ) ;
#178 = EDGE_CURVE ( 'NONE', #113, #254, #58, .T. ) ;
#179 = APPROVAL_PERSON_ORGANIZATION ( #105, #293, #141 ) ;
#180 = CIRCLE ( 'NONE', #85, 5.690598923241479312 ) ;
#181 = EDGE_CURVE ( 'NONE', #247, #200, #337, .T. ) ;
#182 = CARTESIAN_POINT ( 'NONE',  ( 5.690598923241479312, 0.000000000000000000, 42.00000000000000000 ) ) ;
#183 = CC_DESIGN_PERSON_AND_ORGANIZATION_ASSIGNMENT ( #304, #325, ( #165 ) ) ;
#184 = CARTESIAN_POINT ( 'NONE',  ( 0.000000000000000000, 0.000000000000000000, 0.000000000000000000 ) ) ;
#185 = EDGE_CURVE ( 'NONE', #193, #152, #62, .T. ) ;
#186 = CYLINDRICAL_SURFACE ( 'NONE', #145, 2.500000000000000000 ) ;
#187 = FACE_OUTER_BOUND ( 'NONE', #296, .T. ) ;
#188 = AXIS2_PLACEMENT_3D ( 'NONE', #348, #128, #93 ) ;
#189 = DIRECTION ( 'NONE',  ( 0.5000000000000003331, 6.123233995736769734E-17, -0.8660254037844383745 ) ) ;
#190 = APPROVAL_STATUS ( 'not_yet_approved' ) ;
#191 = CARTESIAN_POINT ( 'NONE',  ( 8.000000000000000000, 0.000000000000000000, 50.00000000000000000 ) ) ;
#192 = FACE_OUTER_BOUND ( 'NONE', #326, .T. ) ;
#193 = VERTEX_POINT ( 'NONE', #96 ) ;
#194 = COORDINATED_UNIVERSAL_TIME_OFFSET ( 9, 0, .AHEAD. ) ;
#195 = ORIENTED_EDGE ( 'NONE', *, *, #185, .F. ) ;
#196 = APPROVAL_STATUS ( 'not_yet_approved' ) ;
#197 = ADVANCED_FACE ( 'NONE', ( #315 ), #98, .T. ) ;
#198 = PERSON_AND_ORGANIZATION ( #221, #34 ) ;
#199 = DIRECTION ( 'NONE',  ( 1.000000000000000000, 0.000000000000000000, 0.000000000000000000 ) ) ;
#200 = VERTEX_POINT ( 'NONE', #79 ) ;
#201 = EDGE_LOOP ( 'NONE', ( #83, #126, #143, #212 ) ) ;
#202 =( GEOMETRIC_REPRESENTATION_CONTEXT ( 3 ) GLOBAL_UNCERTAINTY_ASSIGNED_CONTEXT ( ( #108 ) ) GLOBAL_UNIT_ASSIGNED_CONTEXT ( ( #134, #45, #319 ) ) REPRESENTATION_CONTEXT ( 'NONE', 'WORKASPACE' ) );
#203 = FACE_BOUND ( 'NONE', #218, .T. ) ;
#204 = CIRCLE ( 'NONE', #36, 8.000000000000000000 ) ;
#205 = CARTESIAN_POINT ( 'NONE',  ( 0.000000000000000000, 0.000000000000000000, 50.00000000000000000 ) ) ;
#206 = DIRECTION ( 'NONE',  ( 0.000000000000000000, 0.000000000000000000, 1.000000000000000000 ) ) ;
#207 = CARTESIAN_POINT ( 'NONE',  ( 0.000000000000000000, 0.000000000000000000, 42.00000000000000000 ) ) ;
#208 = PRODUCT_DEFINITION_FORMATION_WITH_SPECIFIED_SOURCE ( 'ANY', '', #350, .NOT_KNOWN. ) ;
#209 = VERTEX_POINT ( 'NONE', #170 ) ;
#210 = LOCAL_TIME ( 8, 59, 17.00000000000000000, #194 ) ;
#211 = DIRECTION ( 'NONE',  ( 0.000000000000000000, 0.000000000000000000, 1.000000000000000000 ) ) ;
#212 = ORIENTED_EDGE ( 'NONE', *, *, #352, .F. ) ;
#213 = APPROVAL ( #196, 'UNSPECIFIED' ) ;
#214 = CARTESIAN_POINT ( 'NONE',  ( -6.845299461620751202, 9.090124234028888865E-16, 0.000000000000000000 ) ) ;
#215 = AXIS2_PLACEMENT_3D ( 'NONE', #182, #147, #18 ) ;
#216 = CARTESIAN_POINT ( 'NONE',  ( 0.000000000000000000, 0.000000000000000000, 0.000000000000000000 ) ) ;
#217 = VERTEX_POINT ( 'NONE', #265 ) ;
#218 = EDGE_LOOP ( 'NONE', ( #2, #116 ) ) ;
#219 = CARTESIAN_POINT ( 'NONE',  ( 5.690598923241479312, 8.383074074878937281E-16, 42.00000000000000000 ) ) ;
#220 = CALENDAR_DATE ( 2021, 25, 10 ) ;
#221 = PERSON ( 'UNSPECIFIED', 'UNSPECIFIED', 'UNSPECIFIED', ('UNSPECIFIED'), ('UNSPECIFIED'), ('UNSPECIFIED') ) ;
#222 = EDGE_CURVE ( 'NONE', #193, #200, #137, .T. ) ;
#223 = ORIENTED_EDGE ( 'NONE', *, *, #185, .T. ) ;
#224 = AXIS2_PLACEMENT_3D ( 'NONE', #38, #235, #146 ) ;
#225 = VECTOR ( 'NONE', #121, 1000.000000000000000 ) ;
#226 = LOCAL_TIME ( 8, 59, 17.00000000000000000, #48 ) ;
#227 = COORDINATED_UNIVERSAL_TIME_OFFSET ( 9, 0, .AHEAD. ) ;
#228 = ORIENTED_EDGE ( 'NONE', *, *, #178, .F. ) ;
#229 = CARTESIAN_POINT ( 'NONE',  ( 0.000000000000000000, 0.000000000000000000, 38.00000000000000000 ) ) ;
#230 = CC_DESIGN_PERSON_AND_ORGANIZATION_ASSIGNMENT ( #322, #278, ( #277 ) ) ;
#231 = ORIENTED_EDGE ( 'NONE', *, *, #10, .F. ) ;
#232 = LOCAL_TIME ( 8, 59, 17.00000000000000000, #132 ) ;
#233 = PLANE ( 'NONE',  #215 ) ;
#234 = EDGE_CURVE ( 'NONE', #327, #354, #180, .T. ) ;
#235 = DIRECTION ( 'NONE',  ( 0.000000000000000000, 0.000000000000000000, 1.000000000000000000 ) ) ;
#236 = AXIS2_PLACEMENT_3D ( 'NONE', #184, #343, #97 ) ;
#237 = DIRECTION ( 'NONE',  ( 1.000000000000000000, 0.000000000000000000, 0.000000000000000000 ) ) ;
#238 = ORIENTED_EDGE ( 'NONE', *, *, #352, .T. ) ;
#239 = AXIS2_PLACEMENT_3D ( 'NONE', #216, #100, #237 ) ;
#240 = ORIENTED_EDGE ( 'NONE', *, *, #181, .T. ) ;
#241 = AXIS2_PLACEMENT_3D ( 'NONE', #37, #323, #283 ) ;
#242 = DIRECTION ( 'NONE',  ( 1.000000000000000000, 0.000000000000000000, 0.000000000000000000 ) ) ;
#243 = DIRECTION ( 'NONE',  ( -1.000000000000000000, 0.000000000000000000, 0.000000000000000000 ) ) ;
#244 = DIRECTION ( 'NONE',  ( 1.000000000000000000, 0.000000000000000000, 0.000000000000000000 ) ) ;
#245 = PERSON_AND_ORGANIZATION ( #221, #34 ) ;
#246 = AXIS2_PLACEMENT_3D ( 'NONE', #312, #206, #124 ) ;
#247 = VERTEX_POINT ( 'NONE', #140 ) ;
#248 = EDGE_CURVE ( 'NONE', #78, #209, #288, .T. ) ;
#249 = APPROVAL_DATE_TIME ( #138, #213 ) ;
#250 = ORIENTED_EDGE ( 'NONE', *, *, #222, .T. ) ;
#251 = FACE_OUTER_BOUND ( 'NONE', #201, .T. ) ;
#252 = ORIENTED_EDGE ( 'NONE', *, *, #91, .F. ) ;
#253 = CARTESIAN_POINT ( 'NONE',  ( 0.000000000000000000, 0.000000000000000000, 42.00000000000000000 ) ) ;
#254 = VERTEX_POINT ( 'NONE', #21 ) ;
#255 = ORIENTED_EDGE ( 'NONE', *, *, #234, .T. ) ;
#256 = CARTESIAN_POINT ( 'NONE',  ( 0.000000000000000000, 0.000000000000000000, 42.00000000000000000 ) ) ;
#257 = CIRCLE ( 'NONE', #246, 2.500000000000000000 ) ;
#258 = ADVANCED_BREP_SHAPE_REPRESENTATION ( 'bj720-16001', ( #95, #155 ), #202 ) ;
#259 = ORIENTED_EDGE ( 'NONE', *, *, #222, .F. ) ;
#260 = DIRECTION ( 'NONE',  ( 1.000000000000000000, 0.000000000000000000, 0.000000000000000000 ) ) ;
#261 = VECTOR ( 'NONE', #104, 1000.000000000000000 ) ;
#262 = CARTESIAN_POINT ( 'NONE',  ( 0.000000000000000000, 0.000000000000000000, 38.00000000000000000 ) ) ;
#263 = DIRECTION ( 'NONE',  ( 0.000000000000000000, 0.000000000000000000, -1.000000000000000000 ) ) ;
#264 = CARTESIAN_POINT ( 'NONE',  ( 0.000000000000000000, 0.000000000000000000, 0.000000000000000000 ) ) ;
#265 = CARTESIAN_POINT ( 'NONE',  ( 2.500000000000000000, 0.000000000000000000, 42.00000000000000000 ) ) ;
#266 = APPROVAL_ROLE ( '' ) ;
#267 = CARTESIAN_POINT ( 'NONE',  ( 0.000000000000000000, 0.000000000000000000, 38.00000000000000000 ) ) ;
#268 = AXIS2_PLACEMENT_3D ( 'NONE', #130, #274, #199 ) ;
#269 = ORIENTED_EDGE ( 'NONE', *, *, #248, .T. ) ;
#270 = DESIGN_CONTEXT ( 'detailed design', #159, 'design' ) ;
#271 = DIRECTION ( 'NONE',  ( 1.000000000000000000, 0.000000000000000000, 0.000000000000000000 ) ) ;
#272 = EDGE_LOOP ( 'NONE', ( #345, #324 ) ) ;
#273 = DATE_AND_TIME ( #301, #64 ) ;
#274 = DIRECTION ( 'NONE',  ( 0.000000000000000000, 0.000000000000000000, 1.000000000000000000 ) ) ;
#275 = ORIENTED_EDGE ( 'NONE', *, *, #23, .T. ) ;
#276 = ORIENTED_EDGE ( 'NONE', *, *, #26, .T. ) ;
#277 = PRODUCT_DEFINITION ( 'UNKNOWN', '', #208, #270 ) ;
#278 = PERSON_AND_ORGANIZATION_ROLE ( 'creator' ) ;
#279 = VECTOR ( 'NONE', #125, 1000.000000000000000 ) ;
#280 = ORIENTED_EDGE ( 'NONE', *, *, #50, .F. ) ;
#281 = EDGE_CURVE ( 'NONE', #247, #209, #351, .T. ) ;
#282 = CONICAL_SURFACE ( 'NONE', #60, 8.000000000000000000, 0.5235987755982992597 ) ;
#283 = DIRECTION ( 'NONE',  ( 1.000000000000000000, 0.000000000000000000, 0.000000000000000000 ) ) ;
#284 = AXIS2_PLACEMENT_3D ( 'NONE', #262, #69, #123 ) ;
#285 = AXIS2_PLACEMENT_3D ( 'NONE', #122, #160, #347 ) ;
#286 = APPROVAL ( #106, 'UNSPECIFIED' ) ;
#287 = FACE_OUTER_BOUND ( 'NONE', #272, .T. ) ;
#288 = CIRCLE ( 'NONE', #17, 8.000000000000000000 ) ;
#289 = CARTESIAN_POINT ( 'NONE',  ( -8.000000000000000000, 9.797174393178825657E-16, 50.00000000000000000 ) ) ;
#290 = CARTESIAN_POINT ( 'NONE',  ( 0.000000000000000000, 0.000000000000000000, 38.00000000000000000 ) ) ;
#291 = CARTESIAN_POINT ( 'NONE',  ( 2.500000000000000000, 0.000000000000000000, 50.00000000000000000 ) ) ;
#292 = PERSON_AND_ORGANIZATION_ROLE ( 'design_supplier' ) ;
#293 = APPROVAL ( #190, 'UNSPECIFIED' ) ;
#294 = DIRECTION ( 'NONE',  ( 0.000000000000000000, 0.000000000000000000, 1.000000000000000000 ) ) ;
#295 = CARTESIAN_POINT ( 'NONE',  ( 0.000000000000000000, 0.000000000000000000, 2.000000000000000000 ) ) ;
#296 = EDGE_LOOP ( 'NONE', ( #136, #302, #107, #336 ) ) ;
#297 = DATE_AND_TIME ( #332, #90 ) ;
#298 = CONICAL_SURFACE ( 'NONE', #329, 8.000000000000000000, 0.5235987755982987046 ) ;
#299 = AXIS2_PLACEMENT_3D ( 'NONE', #207, #13, #338 ) ;
#300 = CC_DESIGN_APPROVAL ( #293, ( #208 ) ) ;
#301 = CALENDAR_DATE ( 2021, 25, 10 ) ;
#302 = ORIENTED_EDGE ( 'NONE', *, *, #234, .F. ) ;
#303 = DIRECTION ( 'NONE',  ( 0.000000000000000000, 0.000000000000000000, 1.000000000000000000 ) ) ;
#304 = PERSON_AND_ORGANIZATION ( #221, #34 ) ;
#305 = EDGE_CURVE ( 'NONE', #200, #247, #204, .T. ) ;
#306 = EDGE_LOOP ( 'NONE', ( #255, #101 ) ) ;
#307 = FACE_OUTER_BOUND ( 'NONE', #306, .T. ) ;
#308 = ADVANCED_FACE ( 'NONE', ( #187 ), #282, .T. ) ;
#309 = AXIS2_PLACEMENT_3D ( 'NONE', #264, #353, #44 ) ;
#310 = DIRECTION ( 'NONE',  ( 1.000000000000000000, 0.000000000000000000, 0.000000000000000000 ) ) ;
#311 = CC_DESIGN_DATE_AND_TIME_ASSIGNMENT ( #30, #355, ( #277 ) ) ;
#312 = CARTESIAN_POINT ( 'NONE',  ( 0.000000000000000000, 0.000000000000000000, 42.00000000000000000 ) ) ;
#313 = CC_DESIGN_DATE_AND_TIME_ASSIGNMENT ( #24, #42, ( #165 ) ) ;
#314 = LINE ( 'NONE', #291, #279 ) ;
#315 = FACE_OUTER_BOUND ( 'NONE', #3, .T. ) ;
#316 = CARTESIAN_POINT ( 'NONE',  ( -8.000000000000000000, 9.797174393178825657E-16, 2.000000000000000000 ) ) ;
#317 = CARTESIAN_POINT ( 'NONE',  ( 0.000000000000000000, 0.000000000000000000, 2.000000000000000000 ) ) ;
#318 = EDGE_CURVE ( 'NONE', #333, #113, #118, .T. ) ;
#319 =( NAMED_UNIT ( * ) SI_UNIT ( $, .STERADIAN. ) SOLID_ANGLE_UNIT ( ) );
#320 = FACE_OUTER_BOUND ( 'NONE', #169, .T. ) ;
#321 = LINE ( 'NONE', #157, #32 ) ;
#322 = PERSON_AND_ORGANIZATION ( #221, #34 ) ;
#323 = DIRECTION ( 'NONE',  ( 0.000000000000000000, 0.000000000000000000, 1.000000000000000000 ) ) ;
#324 = ORIENTED_EDGE ( 'NONE', *, *, #339, .T. ) ;
#325 = PERSON_AND_ORGANIZATION_ROLE ( 'classification_officer' ) ;
#326 = EDGE_LOOP ( 'NONE', ( #280, #25, #250, #6 ) ) ;
#327 = VERTEX_POINT ( 'NONE', #176 ) ;
#328 = APPROVAL_DATE_TIME ( #297, #293 ) ;
#329 = AXIS2_PLACEMENT_3D ( 'NONE', #295, #164, #310 ) ;
#330 = VECTOR ( 'NONE', #47, 1000.000000000000000 ) ;
#331 = ORIENTED_EDGE ( 'NONE', *, *, #318, .F. ) ;
#332 = CALENDAR_DATE ( 2021, 25, 10 ) ;
#333 = VERTEX_POINT ( 'NONE', #74 ) ;
#334 = CARTESIAN_POINT ( 'NONE',  ( 0.000000000000000000, 0.000000000000000000, 50.00000000000000000 ) ) ;
#335 = ADVANCED_FACE ( 'NONE', ( #192 ), #298, .T. ) ;
#336 = ORIENTED_EDGE ( 'NONE', *, *, #10, .T. ) ;
#337 = CIRCLE ( 'NONE', #285, 8.000000000000000000 ) ;
#338 = DIRECTION ( 'NONE',  ( 1.000000000000000000, 0.000000000000000000, 0.000000000000000000 ) ) ;
#339 = EDGE_CURVE ( 'NONE', #113, #333, #40, .T. ) ;
#340 = ORIENTED_EDGE ( 'NONE', *, *, #55, .F. ) ;
#341 = ADVANCED_FACE ( 'NONE', ( #92 ), #88, .F. ) ;
#342 = ADVANCED_FACE ( 'NONE', ( #320 ), #72, .T. ) ;
#343 = DIRECTION ( 'NONE',  ( 0.000000000000000000, 0.000000000000000000, 1.000000000000000000 ) ) ;
#344 = AXIS2_PLACEMENT_3D ( 'NONE', #267, #129, #243 ) ;
#345 = ORIENTED_EDGE ( 'NONE', *, *, #318, .T. ) ;
#346 = LINE ( 'NONE', #133, #35 ) ;
#347 = DIRECTION ( 'NONE',  ( 1.000000000000000000, 0.000000000000000000, 0.000000000000000000 ) ) ;
#348 = CARTESIAN_POINT ( 'NONE',  ( 0.000000000000000000, 0.000000000000000000, 32.00000000000000000 ) ) ;
#349 = APPROVAL_DATE_TIME ( #273, #286 ) ;
#350 = PRODUCT ( 'bj720-16001', 'bj720-16001', '', ( #4 ) ) ;
#351 = LINE ( 'NONE', #289, #261 ) ;
#352 = EDGE_CURVE ( 'NONE', #200, #78, #73, .T. ) ;
#353 = DIRECTION ( 'NONE',  ( 0.000000000000000000, 0.000000000000000000, 1.000000000000000000 ) ) ;
#354 = VERTEX_POINT ( 'NONE', #219 ) ;
#355 = DATE_TIME_ROLE ( 'creation_date' ) ;
ENDSEC;
END-ISO-10303-21;
