ISO-10303-21;
HEADER;
FILE_DESCRIPTION (( 'STEP AP203' ),
    '1' );
FILE_NAME ('bj720-18001.STEP',
    '2021-10-24T23:59:20',
    ( '' ),
    ( '' ),
    'SwSTEP 2.0',
    'SolidWorks 2020',
    '' );
FILE_SCHEMA (( 'CONFIG_CONTROL_DESIGN' ));
ENDSEC;

DATA;
#1 = DIRECTION ( 'NONE',  ( 1.000000000000000000, 0.000000000000000000, 0.000000000000000000 ) ) ;
#2 = ADVANCED_FACE ( 'NONE', ( #65 ), #202, .T. ) ;
#3 = APPROVAL_ROLE ( '' ) ;
#4 = DIRECTION ( 'NONE',  ( 0.000000000000000000, 0.000000000000000000, 1.000000000000000000 ) ) ;
#5 = VERTEX_POINT ( 'NONE', #221 ) ;
#6 = DATE_AND_TIME ( #281, #151 ) ;
#7 = COORDINATED_UNIVERSAL_TIME_OFFSET ( 9, 0, .AHEAD. ) ;
#8 = APPROVAL_DATE_TIME ( #148, #103 ) ;
#9 = EDGE_CURVE ( 'NONE', #347, #110, #350, .T. ) ;
#10 = MECHANICAL_CONTEXT ( 'NONE', #143, 'mechanical' ) ;
#11 = CARTESIAN_POINT ( 'NONE',  ( -7.845299461620750314, 1.031477103317624035E-15, 0.000000000000000000 ) ) ;
#12 = SHAPE_DEFINITION_REPRESENTATION ( #328, #23 ) ;
#13 = DIRECTION ( 'NONE',  ( 0.000000000000000000, 0.000000000000000000, 1.000000000000000000 ) ) ;
#14 = AXIS2_PLACEMENT_3D ( 'NONE', #18, #194, #237 ) ;
#15 = DIRECTION ( 'NONE',  ( 1.000000000000000000, 0.000000000000000000, 0.000000000000000000 ) ) ;
#16 = EDGE_LOOP ( 'NONE', ( #233, #91, #311, #227 ) ) ;
#17 = ORIENTED_EDGE ( 'NONE', *, *, #324, .F. ) ;
#18 = CARTESIAN_POINT ( 'NONE',  ( 0.000000000000000000, 0.000000000000000000, 46.00000000000000000 ) ) ;
#19 = LOCAL_TIME ( 8, 59, 20.00000000000000000, #61 ) ;
#20 = CARTESIAN_POINT ( 'NONE',  ( 0.000000000000000000, 0.000000000000000000, 2.000000000000000000 ) ) ;
#21 = VERTEX_POINT ( 'NONE', #185 ) ;
#22 = EDGE_CURVE ( 'NONE', #236, #129, #52, .T. ) ;
#23 = ADVANCED_BREP_SHAPE_REPRESENTATION ( 'bj720-18001', ( #198, #197 ), #88 ) ;
#24 = DIRECTION ( 'NONE',  ( -1.000000000000000000, 0.000000000000000000, 0.000000000000000000 ) ) ;
#25 = AXIS2_PLACEMENT_3D ( 'NONE', #193, #50, #164 ) ;
#26 = FACE_OUTER_BOUND ( 'NONE', #45, .T. ) ;
#27 = DIRECTION ( 'NONE',  ( 1.000000000000000000, 0.000000000000000000, 0.000000000000000000 ) ) ;
#28 = DIRECTION ( 'NONE',  ( 0.000000000000000000, 0.000000000000000000, 1.000000000000000000 ) ) ;
#29 = APPROVAL_DATE_TIME ( #254, #118 ) ;
#30 = CYLINDRICAL_SURFACE ( 'NONE', #293, 2.500000000000000000 ) ;
#31 = PERSON_AND_ORGANIZATION_ROLE ( 'classification_officer' ) ;
#32 = AXIS2_PLACEMENT_3D ( 'NONE', #230, #344, #99 ) ;
#33 = LOCAL_TIME ( 8, 59, 20.00000000000000000, #71 ) ;
#34 = APPROVAL_ROLE ( '' ) ;
#35 = LINE ( 'NONE', #112, #212 ) ;
#36 = CC_DESIGN_PERSON_AND_ORGANIZATION_ASSIGNMENT ( #56, #305, ( #172 ) ) ;
#37 = LINE ( 'NONE', #255, #47 ) ;
#38 = AXIS2_PLACEMENT_3D ( 'NONE', #272, #165, #244 ) ;
#39 = APPROVAL_STATUS ( 'not_yet_approved' ) ;
#40 = ORIENTED_EDGE ( 'NONE', *, *, #309, .F. ) ;
#41 = LINE ( 'NONE', #48, #354 ) ;
#42 = ORIENTED_EDGE ( 'NONE', *, *, #70, .F. ) ;
#43 = CARTESIAN_POINT ( 'NONE',  ( -9.000000000000000000, 1.102182119232617714E-15, 2.000000000000000000 ) ) ;
#44 = ORIENTED_EDGE ( 'NONE', *, *, #318, .F. ) ;
#45 = EDGE_LOOP ( 'NONE', ( #42, #343, #286, #163 ) ) ;
#46 = ADVANCED_FACE ( 'NONE', ( #262 ), #170, .T. ) ;
#47 = VECTOR ( 'NONE', #69, 1000.000000000000000 ) ;
#48 = CARTESIAN_POINT ( 'NONE',  ( 9.000000000000000000, 0.000000000000000000, 50.00000000000000000 ) ) ;
#49 = ORIENTED_EDGE ( 'NONE', *, *, #216, .F. ) ;
#50 = DIRECTION ( 'NONE',  ( 0.000000000000000000, 0.000000000000000000, 1.000000000000000000 ) ) ;
#51 = CARTESIAN_POINT ( 'NONE',  ( 0.000000000000000000, 0.000000000000000000, 2.000000000000000000 ) ) ;
#52 = CIRCLE ( 'NONE', #104, 9.000000000000000000 ) ;
#53 = ORIENTED_EDGE ( 'NONE', *, *, #142, .T. ) ;
#54 = FACE_OUTER_BOUND ( 'NONE', #258, .T. ) ;
#55 = EDGE_CURVE ( 'NONE', #129, #236, #115, .T. ) ;
#56 = PERSON_AND_ORGANIZATION ( #108, #166 ) ;
#57 = AXIS2_PLACEMENT_3D ( 'NONE', #282, #180, #15 ) ;
#58 = CC_DESIGN_APPROVAL ( #243, ( #160 ) ) ;
#59 = CYLINDRICAL_SURFACE ( 'NONE', #123, 2.500000000000000000 ) ;
#60 = PRODUCT_RELATED_PRODUCT_CATEGORY ( 'detail', '', ( #325 ) ) ;
#61 = COORDINATED_UNIVERSAL_TIME_OFFSET ( 9, 0, .AHEAD. ) ;
#62 = ORIENTED_EDGE ( 'NONE', *, *, #22, .F. ) ;
#63 = APPLICATION_PROTOCOL_DEFINITION ( 'international standard', 'config_control_design', 1994, #143 ) ;
#64 = APPLICATION_CONTEXT ( 'configuration controlled 3d designs of mechanical parts and assemblies' ) ;
#65 = FACE_OUTER_BOUND ( 'NONE', #154, .T. ) ;
#66 = CARTESIAN_POINT ( 'NONE',  ( -6.113248654051849584, 0.000000000000000000, 46.00000000000000000 ) ) ;
#67 = CONICAL_SURFACE ( 'NONE', #32, 9.000000000000000000, 0.5235987755982992597 ) ;
#68 = DATE_AND_TIME ( #174, #219 ) ;
#69 = DIRECTION ( 'NONE',  ( 0.000000000000000000, 0.000000000000000000, 1.000000000000000000 ) ) ;
#70 = EDGE_CURVE ( 'NONE', #251, #21, #321, .T. ) ;
#71 = COORDINATED_UNIVERSAL_TIME_OFFSET ( 9, 0, .AHEAD. ) ;
#72 = AXIS2_PLACEMENT_3D ( 'NONE', #268, #4, #81 ) ;
#73 = ORIENTED_EDGE ( 'NONE', *, *, #252, .T. ) ;
#74 = CARTESIAN_POINT ( 'NONE',  ( -9.000000000000000000, 1.102182119232617714E-15, 41.00000000000000000 ) ) ;
#75 = ORIENTED_EDGE ( 'NONE', *, *, #121, .F. ) ;
#76 = DIRECTION ( 'NONE',  ( -0.5000000000000003331, 6.123233995736769734E-17, 0.8660254037844383745 ) ) ;
#77 = PLANE ( 'NONE',  #93 ) ;
#78 = ORIENTED_EDGE ( 'NONE', *, *, #332, .T. ) ;
#79 = DIRECTION ( 'NONE',  ( 1.000000000000000000, 0.000000000000000000, 0.000000000000000000 ) ) ;
#80 = DIRECTION ( 'NONE',  ( -1.000000000000000000, 0.000000000000000000, 0.000000000000000000 ) ) ;
#81 = DIRECTION ( 'NONE',  ( 1.000000000000000000, 0.000000000000000000, 0.000000000000000000 ) ) ;
#82 = AXIS2_PLACEMENT_3D ( 'NONE', #188, #126, #80 ) ;
#83 = FACE_OUTER_BOUND ( 'NONE', #299, .T. ) ;
#84 = FACE_OUTER_BOUND ( 'NONE', #156, .T. ) ;
#85 = EDGE_CURVE ( 'NONE', #236, #189, #41, .T. ) ;
#86 = ORIENTED_EDGE ( 'NONE', *, *, #284, .T. ) ;
#87 = AXIS2_PLACEMENT_3D ( 'NONE', #291, #213, #313 ) ;
#88 =( GEOMETRIC_REPRESENTATION_CONTEXT ( 3 ) GLOBAL_UNCERTAINTY_ASSIGNED_CONTEXT ( ( #353 ) ) GLOBAL_UNIT_ASSIGNED_CONTEXT ( ( #256, #147, #117 ) ) REPRESENTATION_CONTEXT ( 'NONE', 'WORKASPACE' ) );
#89 = DIRECTION ( 'NONE',  ( 0.000000000000000000, 0.000000000000000000, 1.000000000000000000 ) ) ;
#90 = DIRECTION ( 'NONE',  ( 1.000000000000000000, 0.000000000000000000, 0.000000000000000000 ) ) ;
#91 = ORIENTED_EDGE ( 'NONE', *, *, #55, .T. ) ;
#92 = PERSON_AND_ORGANIZATION ( #108, #166 ) ;
#93 = AXIS2_PLACEMENT_3D ( 'NONE', #190, #162, #218 ) ;
#94 = ORIENTED_EDGE ( 'NONE', *, *, #142, .F. ) ;
#95 = CARTESIAN_POINT ( 'NONE',  ( 9.000000000000000000, 1.102182119232617714E-15, 41.00000000000000000 ) ) ;
#96 = ORIENTED_EDGE ( 'NONE', *, *, #318, .T. ) ;
#97 = CARTESIAN_POINT ( 'NONE',  ( -9.000000000000000000, 1.102182119232617714E-15, 50.00000000000000000 ) ) ;
#98 = ORIENTED_EDGE ( 'NONE', *, *, #345, .T. ) ;
#99 = DIRECTION ( 'NONE',  ( 1.000000000000000000, 0.000000000000000000, 0.000000000000000000 ) ) ;
#100 = ORIENTED_EDGE ( 'NONE', *, *, #252, .F. ) ;
#101 = DIRECTION ( 'NONE',  ( 0.5000000000000003331, 6.123233995736769734E-17, -0.8660254037844383745 ) ) ;
#102 = ORIENTED_EDGE ( 'NONE', *, *, #121, .T. ) ;
#103 = APPROVAL ( #39, 'UNSPECIFIED' ) ;
#104 = AXIS2_PLACEMENT_3D ( 'NONE', #51, #122, #79 ) ;
#105 = DIRECTION ( 'NONE',  ( 0.000000000000000000, 0.000000000000000000, 1.000000000000000000 ) ) ;
#106 = CARTESIAN_POINT ( 'NONE',  ( 0.000000000000000000, 0.000000000000000000, 41.00000000000000000 ) ) ;
#107 = CIRCLE ( 'NONE', #72, 6.113248654051849584 ) ;
#108 = PERSON ( 'UNSPECIFIED', 'UNSPECIFIED', 'UNSPECIFIED', ('UNSPECIFIED'), ('UNSPECIFIED'), ('UNSPECIFIED') ) ;
#109 = CYLINDRICAL_SURFACE ( 'NONE', #280, 9.000000000000000000 ) ;
#110 = VERTEX_POINT ( 'NONE', #74 ) ;
#111 = CIRCLE ( 'NONE', #306, 9.000000000000000000 ) ;
#112 = CARTESIAN_POINT ( 'NONE',  ( 9.000000000000000000, 0.000000000000000000, 2.000000000000000000 ) ) ;
#113 = DIRECTION ( 'NONE',  ( 1.000000000000000000, 0.000000000000000000, 0.000000000000000000 ) ) ;
#114 = DIRECTION ( 'NONE',  ( 1.000000000000000000, 0.000000000000000000, 0.000000000000000000 ) ) ;
#115 = CIRCLE ( 'NONE', #298, 9.000000000000000000 ) ;
#116 = EDGE_CURVE ( 'NONE', #129, #110, #158, .T. ) ;
#117 =( NAMED_UNIT ( * ) SI_UNIT ( $, .STERADIAN. ) SOLID_ANGLE_UNIT ( ) );
#118 = APPROVAL ( #248, 'UNSPECIFIED' ) ;
#119 = ORIENTED_EDGE ( 'NONE', *, *, #22, .T. ) ;
#120 = VERTEX_POINT ( 'NONE', #11 ) ;
#121 = EDGE_CURVE ( 'NONE', #120, #129, #315, .T. ) ;
#122 = DIRECTION ( 'NONE',  ( 0.000000000000000000, 0.000000000000000000, 1.000000000000000000 ) ) ;
#123 = AXIS2_PLACEMENT_3D ( 'NONE', #133, #105, #207 ) ;
#124 = SECURITY_CLASSIFICATION ( '', '', #146 ) ;
#125 = ORIENTED_EDGE ( 'NONE', *, *, #55, .F. ) ;
#126 = DIRECTION ( 'NONE',  ( 0.000000000000000000, 0.000000000000000000, -1.000000000000000000 ) ) ;
#127 = EDGE_CURVE ( 'NONE', #251, #5, #249, .T. ) ;
#128 = DIRECTION ( 'NONE',  ( 0.000000000000000000, 0.000000000000000000, 1.000000000000000000 ) ) ;
#129 = VERTEX_POINT ( 'NONE', #296 ) ;
#130 = CARTESIAN_POINT ( 'NONE',  ( 0.000000000000000000, 0.000000000000000000, 41.00000000000000000 ) ) ;
#131 = CC_DESIGN_PERSON_AND_ORGANIZATION_ASSIGNMENT ( #304, #336, ( #160 ) ) ;
#132 = CONICAL_SURFACE ( 'NONE', #159, 9.000000000000000000, 0.5235987755982992597 ) ;
#133 = CARTESIAN_POINT ( 'NONE',  ( 0.000000000000000000, 0.000000000000000000, 50.00000000000000000 ) ) ;
#134 = PLANE ( 'NONE',  #38 ) ;
#135 = ADVANCED_FACE ( 'NONE', ( #340 ), #196, .T. ) ;
#136 = DIRECTION ( 'NONE',  ( 1.000000000000000000, 0.000000000000000000, 0.000000000000000000 ) ) ;
#137 = VECTOR ( 'NONE', #241, 1000.000000000000000 ) ;
#138 = APPROVAL_PERSON_ORGANIZATION ( #250, #118, #3 ) ;
#139 = CARTESIAN_POINT ( 'NONE',  ( 0.000000000000000000, 0.000000000000000000, 2.000000000000000000 ) ) ;
#140 = DATE_TIME_ROLE ( 'classification_date' ) ;
#141 = CARTESIAN_POINT ( 'NONE',  ( 9.000000000000000000, 0.000000000000000000, 2.000000000000000000 ) ) ;
#142 = EDGE_CURVE ( 'NONE', #21, #260, #348, .T. ) ;
#143 = APPLICATION_CONTEXT ( 'configuration controlled 3d designs of mechanical parts and assemblies' ) ;
#144 = CARTESIAN_POINT ( 'NONE',  ( 0.000000000000000000, 0.000000000000000000, 0.000000000000000000 ) ) ;
#145 = COORDINATED_UNIVERSAL_TIME_OFFSET ( 9, 0, .AHEAD. ) ;
#146 = SECURITY_CLASSIFICATION_LEVEL ( 'unclassified' ) ;
#147 =( NAMED_UNIT ( * ) PLANE_ANGLE_UNIT ( ) SI_UNIT ( $, .RADIAN. ) );
#148 = DATE_AND_TIME ( #225, #33 ) ;
#149 = EDGE_CURVE ( 'NONE', #5, #251, #287, .T. ) ;
#150 = VECTOR ( 'NONE', #76, 1000.000000000000114 ) ;
#151 = LOCAL_TIME ( 8, 59, 20.00000000000000000, #173 ) ;
#152 = ORIENTED_EDGE ( 'NONE', *, *, #9, .T. ) ;
#153 = PERSON_AND_ORGANIZATION_ROLE ( 'design_owner' ) ;
#154 = EDGE_LOOP ( 'NONE', ( #161, #208 ) ) ;
#155 = DIRECTION ( 'NONE',  ( 0.000000000000000000, 0.000000000000000000, 1.000000000000000000 ) ) ;
#156 = EDGE_LOOP ( 'NONE', ( #119, #222, #100, #257 ) ) ;
#157 = ADVANCED_FACE ( 'NONE', ( #253 ), #67, .T. ) ;
#158 = LINE ( 'NONE', #97, #329 ) ;
#159 = AXIS2_PLACEMENT_3D ( 'NONE', #139, #89, #1 ) ;
#160 = PRODUCT_DEFINITION_FORMATION_WITH_SPECIFIED_SOURCE ( 'ANY', '', #325, .NOT_KNOWN. ) ;
#161 = ORIENTED_EDGE ( 'NONE', *, *, #149, .T. ) ;
#162 = DIRECTION ( 'NONE',  ( 0.000000000000000000, 0.000000000000000000, -1.000000000000000000 ) ) ;
#163 = ORIENTED_EDGE ( 'NONE', *, *, #210, .T. ) ;
#164 = DIRECTION ( 'NONE',  ( 1.000000000000000000, 0.000000000000000000, 0.000000000000000000 ) ) ;
#165 = DIRECTION ( 'NONE',  ( 0.000000000000000000, 0.000000000000000000, 1.000000000000000000 ) ) ;
#166 = ORGANIZATION ( 'UNSPECIFIED', 'UNSPECIFIED', '' ) ;
#167 = EDGE_CURVE ( 'NONE', #206, #189, #335, .T. ) ;
#168 = CARTESIAN_POINT ( 'NONE',  ( 0.000000000000000000, 0.000000000000000000, 50.00000000000000000 ) ) ;
#169 = CARTESIAN_POINT ( 'NONE',  ( 7.845299461620750314, 0.000000000000000000, 0.000000000000000000 ) ) ;
#170 = CONICAL_SURFACE ( 'NONE', #303, 9.000000000000000000, 0.5235987755982992597 ) ;
#171 = DATE_TIME_ROLE ( 'creation_date' ) ;
#172 = PRODUCT_DEFINITION ( 'UNKNOWN', '', #160, #187 ) ;
#173 = COORDINATED_UNIVERSAL_TIME_OFFSET ( 9, 0, .AHEAD. ) ;
#174 = CALENDAR_DATE ( 2021, 25, 10 ) ;
#175 = CARTESIAN_POINT ( 'NONE',  ( 0.000000000000000000, 0.000000000000000000, 0.000000000000000000 ) ) ;
#176 = AXIS2_PLACEMENT_3D ( 'NONE', #297, #155, #342 ) ;
#177 = DIRECTION ( 'NONE',  ( 0.000000000000000000, 0.000000000000000000, 1.000000000000000000 ) ) ;
#178 = PERSON_AND_ORGANIZATION_ROLE ( 'design_supplier' ) ;
#179 = CARTESIAN_POINT ( 'NONE',  ( 0.000000000000000000, 0.000000000000000000, 50.00000000000000000 ) ) ;
#180 = DIRECTION ( 'NONE',  ( 0.000000000000000000, 0.000000000000000000, 1.000000000000000000 ) ) ;
#181 = ORIENTED_EDGE ( 'NONE', *, *, #332, .F. ) ;
#182 = APPLICATION_PROTOCOL_DEFINITION ( 'international standard', 'config_control_design', 1994, #64 ) ;
#183 = CIRCLE ( 'NONE', #25, 2.500000000000000000 ) ;
#184 = LOCAL_TIME ( 8, 59, 20.00000000000000000, #7 ) ;
#185 = CARTESIAN_POINT ( 'NONE',  ( -2.500000000000000000, 3.061616997868383141E-16, 46.00000000000000000 ) ) ;
#186 = EDGE_LOOP ( 'NONE', ( #181, #266, #73, #351 ) ) ;
#187 = DESIGN_CONTEXT ( 'detailed design', #64, 'design' ) ;
#188 = CARTESIAN_POINT ( 'NONE',  ( 0.000000000000000000, 0.000000000000000000, 41.00000000000000000 ) ) ;
#189 = VERTEX_POINT ( 'NONE', #215 ) ;
#190 = CARTESIAN_POINT ( 'NONE',  ( 6.113248654051849584, 0.000000000000000000, 46.00000000000000000 ) ) ;
#191 = APPROVAL_PERSON_ORGANIZATION ( #308, #243, #34 ) ;
#192 = ORIENTED_EDGE ( 'NONE', *, *, #70, .T. ) ;
#193 = CARTESIAN_POINT ( 'NONE',  ( 0.000000000000000000, 0.000000000000000000, 46.00000000000000000 ) ) ;
#194 = DIRECTION ( 'NONE',  ( 0.000000000000000000, 0.000000000000000000, 1.000000000000000000 ) ) ;
#195 = CARTESIAN_POINT ( 'NONE',  ( 0.000000000000000000, 0.000000000000000000, 50.00000000000000000 ) ) ;
#196 = CONICAL_SURFACE ( 'NONE', #82, 9.000000000000000000, 0.5235987755982992597 ) ;
#197 = AXIS2_PLACEMENT_3D ( 'NONE', #175, #278, #228 ) ;
#198 = MANIFOLD_SOLID_BREP ( 'Imported1', #339 ) ;
#199 = FACE_OUTER_BOUND ( 'NONE', #16, .T. ) ;
#200 = CC_DESIGN_PERSON_AND_ORGANIZATION_ASSIGNMENT ( #277, #31, ( #124 ) ) ;
#201 = ADVANCED_FACE ( 'NONE', ( #294, #235 ), #77, .F. ) ;
#202 = PLANE ( 'NONE',  #261 ) ;
#203 = DIRECTION ( 'NONE',  ( 0.000000000000000000, 0.000000000000000000, 1.000000000000000000 ) ) ;
#204 = VECTOR ( 'NONE', #101, 1000.000000000000114 ) ;
#205 = DATE_AND_TIME ( #276, #19 ) ;
#206 = VERTEX_POINT ( 'NONE', #319 ) ;
#207 = DIRECTION ( 'NONE',  ( 1.000000000000000000, 0.000000000000000000, 0.000000000000000000 ) ) ;
#208 = ORIENTED_EDGE ( 'NONE', *, *, #127, .T. ) ;
#209 = DIRECTION ( 'NONE',  ( 1.000000000000000000, 0.000000000000000000, 0.000000000000000000 ) ) ;
#210 = EDGE_CURVE ( 'NONE', #260, #21, #183, .T. ) ;
#211 = EDGE_LOOP ( 'NONE', ( #292, #94 ) ) ;
#212 = VECTOR ( 'NONE', #285, 1000.000000000000114 ) ;
#213 = DIRECTION ( 'NONE',  ( 0.000000000000000000, 0.000000000000000000, 1.000000000000000000 ) ) ;
#214 = DIRECTION ( 'NONE',  ( 0.000000000000000000, 0.000000000000000000, 1.000000000000000000 ) ) ;
#215 = CARTESIAN_POINT ( 'NONE',  ( 9.000000000000000000, 0.000000000000000000, 41.00000000000000000 ) ) ;
#216 = EDGE_CURVE ( 'NONE', #347, #206, #107, .T. ) ;
#217 = CIRCLE ( 'NONE', #322, 9.000000000000000000 ) ;
#218 = DIRECTION ( 'NONE',  ( -1.000000000000000000, 0.000000000000000000, 0.000000000000000000 ) ) ;
#219 = LOCAL_TIME ( 8, 59, 20.00000000000000000, #145 ) ;
#220 = CC_DESIGN_DATE_AND_TIME_ASSIGNMENT ( #205, #140, ( #124 ) ) ;
#221 = CARTESIAN_POINT ( 'NONE',  ( 2.500000000000000000, 0.000000000000000000, 36.00000000000000000 ) ) ;
#222 = ORIENTED_EDGE ( 'NONE', *, *, #116, .T. ) ;
#223 = AXIS2_PLACEMENT_3D ( 'NONE', #144, #177, #113 ) ;
#224 = CARTESIAN_POINT ( 'NONE',  ( 0.000000000000000000, 0.000000000000000000, 41.00000000000000000 ) ) ;
#225 = CALENDAR_DATE ( 2021, 25, 10 ) ;
#226 = CARTESIAN_POINT ( 'NONE',  ( -2.500000000000000000, 3.061616997868383141E-16, 36.00000000000000000 ) ) ;
#227 = ORIENTED_EDGE ( 'NONE', *, *, #284, .F. ) ;
#228 = DIRECTION ( 'NONE',  ( 1.000000000000000000, 0.000000000000000000, 0.000000000000000000 ) ) ;
#229 = FACE_OUTER_BOUND ( 'NONE', #346, .T. ) ;
#230 = CARTESIAN_POINT ( 'NONE',  ( 0.000000000000000000, 0.000000000000000000, 2.000000000000000000 ) ) ;
#231 = APPROVAL_DATE_TIME ( #68, #243 ) ;
#232 = VERTEX_POINT ( 'NONE', #169 ) ;
#233 = ORIENTED_EDGE ( 'NONE', *, *, #116, .F. ) ;
#234 = AXIS2_PLACEMENT_3D ( 'NONE', #331, #13, #209 ) ;
#235 = FACE_OUTER_BOUND ( 'NONE', #316, .T. ) ;
#236 = VERTEX_POINT ( 'NONE', #141 ) ;
#237 = DIRECTION ( 'NONE',  ( 1.000000000000000000, 0.000000000000000000, 0.000000000000000000 ) ) ;
#238 = CARTESIAN_POINT ( 'NONE',  ( -2.500000000000000000, 3.061616997868383141E-16, 50.00000000000000000 ) ) ;
#239 = EDGE_LOOP ( 'NONE', ( #75, #96, #98, #125 ) ) ;
#240 = AXIS2_PLACEMENT_3D ( 'NONE', #195, #28, #352 ) ;
#241 = DIRECTION ( 'NONE',  ( 0.000000000000000000, 0.000000000000000000, 1.000000000000000000 ) ) ;
#242 = ADVANCED_FACE ( 'NONE', ( #84 ), #109, .T. ) ;
#243 = APPROVAL ( #275, 'UNSPECIFIED' ) ;
#244 = DIRECTION ( 'NONE',  ( 1.000000000000000000, 0.000000000000000000, 0.000000000000000000 ) ) ;
#245 = CYLINDRICAL_SURFACE ( 'NONE', #240, 9.000000000000000000 ) ;
#246 = CIRCLE ( 'NONE', #223, 7.845299461620750314 ) ;
#247 = ADVANCED_FACE ( 'NONE', ( #83 ), #134, .F. ) ;
#248 = APPROVAL_STATUS ( 'not_yet_approved' ) ;
#249 = CIRCLE ( 'NONE', #87, 2.500000000000000000 ) ;
#250 = PERSON_AND_ORGANIZATION ( #108, #166 ) ;
#251 = VERTEX_POINT ( 'NONE', #226 ) ;
#252 = EDGE_CURVE ( 'NONE', #189, #110, #217, .T. ) ;
#253 = FACE_OUTER_BOUND ( 'NONE', #239, .T. ) ;
#254 = DATE_AND_TIME ( #283, #184 ) ;
#255 = CARTESIAN_POINT ( 'NONE',  ( 2.500000000000000000, 0.000000000000000000, 50.00000000000000000 ) ) ;
#256 =( LENGTH_UNIT ( ) NAMED_UNIT ( * ) SI_UNIT ( .MILLI., .METRE. ) );
#257 = ORIENTED_EDGE ( 'NONE', *, *, #85, .F. ) ;
#258 = EDGE_LOOP ( 'NONE', ( #320, #102, #62, #337 ) ) ;
#259 = DIRECTION ( 'NONE',  ( 0.000000000000000000, 0.000000000000000000, -1.000000000000000000 ) ) ;
#260 = VERTEX_POINT ( 'NONE', #300 ) ;
#261 = AXIS2_PLACEMENT_3D ( 'NONE', #355, #279, #274 ) ;
#262 = FACE_OUTER_BOUND ( 'NONE', #264, .T. ) ;
#263 = ADVANCED_FACE ( 'NONE', ( #199 ), #245, .T. ) ;
#264 = EDGE_LOOP ( 'NONE', ( #341, #49, #152, #86 ) ) ;
#265 = CARTESIAN_POINT ( 'NONE',  ( -9.000000000000000000, 0.000000000000000000, 41.00000000000000000 ) ) ;
#266 = ORIENTED_EDGE ( 'NONE', *, *, #167, .T. ) ;
#267 = CC_DESIGN_DATE_AND_TIME_ASSIGNMENT ( #6, #171, ( #172 ) ) ;
#268 = CARTESIAN_POINT ( 'NONE',  ( 0.000000000000000000, 0.000000000000000000, 46.00000000000000000 ) ) ;
#269 = VECTOR ( 'NONE', #317, 1000.000000000000114 ) ;
#270 = DIRECTION ( 'NONE',  ( 0.000000000000000000, 0.000000000000000000, 1.000000000000000000 ) ) ;
#271 = ADVANCED_FACE ( 'NONE', ( #54 ), #132, .T. ) ;
#272 = CARTESIAN_POINT ( 'NONE',  ( 0.000000000000000000, 0.000000000000000000, 0.000000000000000000 ) ) ;
#273 = CIRCLE ( 'NONE', #234, 6.113248654051849584 ) ;
#274 = DIRECTION ( 'NONE',  ( 1.000000000000000000, 0.000000000000000000, 0.000000000000000000 ) ) ;
#275 = APPROVAL_STATUS ( 'not_yet_approved' ) ;
#276 = CALENDAR_DATE ( 2021, 25, 10 ) ;
#277 = PERSON_AND_ORGANIZATION ( #108, #166 ) ;
#278 = DIRECTION ( 'NONE',  ( 0.000000000000000000, 0.000000000000000000, 1.000000000000000000 ) ) ;
#279 = DIRECTION ( 'NONE',  ( 0.000000000000000000, 0.000000000000000000, 1.000000000000000000 ) ) ;
#280 = AXIS2_PLACEMENT_3D ( 'NONE', #168, #270, #27 ) ;
#281 = CALENDAR_DATE ( 2021, 25, 10 ) ;
#282 = CARTESIAN_POINT ( 'NONE',  ( 0.000000000000000000, 0.000000000000000000, 0.000000000000000000 ) ) ;
#283 = CALENDAR_DATE ( 2021, 25, 10 ) ;
#284 = EDGE_CURVE ( 'NONE', #110, #189, #111, .T. ) ;
#285 = DIRECTION ( 'NONE',  ( 0.5000000000000003331, 0.000000000000000000, 0.8660254037844383745 ) ) ;
#286 = ORIENTED_EDGE ( 'NONE', *, *, #324, .T. ) ;
#287 = CIRCLE ( 'NONE', #176, 2.500000000000000000 ) ;
#288 = PERSON_AND_ORGANIZATION ( #108, #166 ) ;
#289 = DIRECTION ( 'NONE',  ( 0.000000000000000000, 0.000000000000000000, 1.000000000000000000 ) ) ;
#290 = ADVANCED_FACE ( 'NONE', ( #26 ), #59, .F. ) ;
#291 = CARTESIAN_POINT ( 'NONE',  ( 0.000000000000000000, 0.000000000000000000, 36.00000000000000000 ) ) ;
#292 = ORIENTED_EDGE ( 'NONE', *, *, #210, .F. ) ;
#293 = AXIS2_PLACEMENT_3D ( 'NONE', #179, #334, #90 ) ;
#294 = FACE_BOUND ( 'NONE', #211, .T. ) ;
#295 = CC_DESIGN_PERSON_AND_ORGANIZATION_ASSIGNMENT ( #92, #153, ( #325 ) ) ;
#296 = CARTESIAN_POINT ( 'NONE',  ( -9.000000000000000000, 1.102182119232617714E-15, 2.000000000000000000 ) ) ;
#297 = CARTESIAN_POINT ( 'NONE',  ( 0.000000000000000000, 0.000000000000000000, 36.00000000000000000 ) ) ;
#298 = AXIS2_PLACEMENT_3D ( 'NONE', #20, #128, #114 ) ;
#299 = EDGE_LOOP ( 'NONE', ( #40, #44 ) ) ;
#300 = CARTESIAN_POINT ( 'NONE',  ( 2.500000000000000000, 0.000000000000000000, 46.00000000000000000 ) ) ;
#301 = CC_DESIGN_PERSON_AND_ORGANIZATION_ASSIGNMENT ( #333, #178, ( #160 ) ) ;
#302 = DIRECTION ( 'NONE',  ( 1.000000000000000000, 0.000000000000000000, 0.000000000000000000 ) ) ;
#303 = AXIS2_PLACEMENT_3D ( 'NONE', #130, #259, #24 ) ;
#304 = PERSON_AND_ORGANIZATION ( #108, #166 ) ;
#305 = PERSON_AND_ORGANIZATION_ROLE ( 'creator' ) ;
#306 = AXIS2_PLACEMENT_3D ( 'NONE', #224, #326, #302 ) ;
#307 = APPROVAL_PERSON_ORGANIZATION ( #288, #103, #310 ) ;
#308 = PERSON_AND_ORGANIZATION ( #108, #166 ) ;
#309 = EDGE_CURVE ( 'NONE', #232, #120, #312, .T. ) ;
#310 = APPROVAL_ROLE ( '' ) ;
#311 = ORIENTED_EDGE ( 'NONE', *, *, #85, .T. ) ;
#312 = CIRCLE ( 'NONE', #57, 7.845299461620750314 ) ;
#313 = DIRECTION ( 'NONE',  ( 1.000000000000000000, 0.000000000000000000, 0.000000000000000000 ) ) ;
#314 = ORIENTED_EDGE ( 'NONE', *, *, #216, .T. ) ;
#315 = LINE ( 'NONE', #43, #150 ) ;
#316 = EDGE_LOOP ( 'NONE', ( #314, #78 ) ) ;
#317 = DIRECTION ( 'NONE',  ( -0.5000000000000003331, 0.000000000000000000, -0.8660254037844383745 ) ) ;
#318 = EDGE_CURVE ( 'NONE', #120, #232, #246, .T. ) ;
#319 = CARTESIAN_POINT ( 'NONE',  ( 6.113248654051849584, 9.254195794451320366E-16, 46.00000000000000000 ) ) ;
#320 = ORIENTED_EDGE ( 'NONE', *, *, #309, .T. ) ;
#321 = LINE ( 'NONE', #238, #137 ) ;
#322 = AXIS2_PLACEMENT_3D ( 'NONE', #106, #203, #136 ) ;
#323 = CC_DESIGN_APPROVAL ( #103, ( #172 ) ) ;
#324 = EDGE_CURVE ( 'NONE', #5, #260, #37, .T. ) ;
#325 = PRODUCT ( 'bj720-18001', 'bj720-18001', '', ( #10 ) ) ;
#326 = DIRECTION ( 'NONE',  ( 0.000000000000000000, 0.000000000000000000, 1.000000000000000000 ) ) ;
#327 = ADVANCED_FACE ( 'NONE', ( #229 ), #30, .F. ) ;
#328 = PRODUCT_DEFINITION_SHAPE ( 'NONE', 'NONE',  #172 ) ;
#329 = VECTOR ( 'NONE', #214, 1000.000000000000000 ) ;
#330 = CC_DESIGN_APPROVAL ( #118, ( #124 ) ) ;
#331 = CARTESIAN_POINT ( 'NONE',  ( 0.000000000000000000, 0.000000000000000000, 46.00000000000000000 ) ) ;
#332 = EDGE_CURVE ( 'NONE', #206, #347, #273, .T. ) ;
#333 = PERSON_AND_ORGANIZATION ( #108, #166 ) ;
#334 = DIRECTION ( 'NONE',  ( 0.000000000000000000, 0.000000000000000000, 1.000000000000000000 ) ) ;
#335 = LINE ( 'NONE', #95, #204 ) ;
#336 = PERSON_AND_ORGANIZATION_ROLE ( 'creator' ) ;
#337 = ORIENTED_EDGE ( 'NONE', *, *, #345, .F. ) ;
#338 = ORIENTED_EDGE ( 'NONE', *, *, #127, .F. ) ;
#339 = CLOSED_SHELL ( 'NONE', ( #327, #135, #242, #271, #247, #157, #263, #46, #201, #290, #2 ) ) ;
#340 = FACE_OUTER_BOUND ( 'NONE', #186, .T. ) ;
#341 = ORIENTED_EDGE ( 'NONE', *, *, #167, .F. ) ;
#342 = DIRECTION ( 'NONE',  ( 1.000000000000000000, 0.000000000000000000, 0.000000000000000000 ) ) ;
#343 = ORIENTED_EDGE ( 'NONE', *, *, #149, .F. ) ;
#344 = DIRECTION ( 'NONE',  ( 0.000000000000000000, 0.000000000000000000, 1.000000000000000000 ) ) ;
#345 = EDGE_CURVE ( 'NONE', #232, #236, #35, .T. ) ;
#346 = EDGE_LOOP ( 'NONE', ( #338, #192, #53, #17 ) ) ;
#347 = VERTEX_POINT ( 'NONE', #66 ) ;
#348 = CIRCLE ( 'NONE', #14, 2.500000000000000000 ) ;
#349 = CC_DESIGN_SECURITY_CLASSIFICATION ( #124, ( #160 ) ) ;
#350 = LINE ( 'NONE', #265, #269 ) ;
#351 = ORIENTED_EDGE ( 'NONE', *, *, #9, .F. ) ;
#352 = DIRECTION ( 'NONE',  ( 1.000000000000000000, 0.000000000000000000, 0.000000000000000000 ) ) ;
#353 = UNCERTAINTY_MEASURE_WITH_UNIT (LENGTH_MEASURE( 1.000000000000000082E-05 ), #256, 'distance_accuracy_value', 'NONE');
#354 = VECTOR ( 'NONE', #289, 1000.000000000000000 ) ;
#355 = CARTESIAN_POINT ( 'NONE',  ( 0.000000000000000000, 0.000000000000000000, 36.00000000000000000 ) ) ;
ENDSEC;
END-ISO-10303-21;
