ISO-10303-21;
HEADER;
FILE_DESCRIPTION (( 'STEP AP203' ),
    '1' );
FILE_NAME ('bj400-16100.STEP',
    '2021-10-24T23:52:16',
    ( '' ),
    ( '' ),
    'SwSTEP 2.0',
    'SolidWorks 2020',
    '' );
FILE_SCHEMA (( 'CONFIG_CONTROL_DESIGN' ));
ENDSEC;

DATA;
#1 = ORIENTED_EDGE ( 'NONE', *, *, #152, .F. ) ;
#2 = APPROVAL_STATUS ( 'not_yet_approved' ) ;
#3 = FACE_BOUND ( 'NONE', #37, .T. ) ;
#4 = DESIGN_CONTEXT ( 'detailed design', #106, 'design' ) ;
#5 = EDGE_CURVE ( 'NONE', #158, #252, #43, .T. ) ;
#6 = ORIENTED_EDGE ( 'NONE', *, *, #323, .T. ) ;
#7 = ORIENTED_EDGE ( 'NONE', *, *, #36, .T. ) ;
#8 = CARTESIAN_POINT ( 'NONE',  ( 13.00000000000000000, 0.000000000000000000, 25.00000000000000000 ) ) ;
#9 = ORIENTED_EDGE ( 'NONE', *, *, #276, .T. ) ;
#10 = CARTESIAN_POINT ( 'NONE',  ( 0.000000000000000000, 0.000000000000000000, 40.00000000000000000 ) ) ;
#11 = LINE ( 'NONE', #122, #109 ) ;
#12 = ORIENTED_EDGE ( 'NONE', *, *, #186, .F. ) ;
#13 = DIRECTION ( 'NONE',  ( 1.000000000000000000, 0.000000000000000000, 0.000000000000000000 ) ) ;
#14 = CARTESIAN_POINT ( 'NONE',  ( 0.000000000000000000, 0.000000000000000000, 25.00000000000000000 ) ) ;
#15 = CC_DESIGN_APPROVAL ( #230, ( #76 ) ) ;
#16 = VERTEX_POINT ( 'NONE', #202 ) ;
#17 = APPROVAL_ROLE ( '' ) ;
#18 = FACE_BOUND ( 'NONE', #123, .T. ) ;
#19 = DIRECTION ( 'NONE',  ( 0.000000000000000000, 0.000000000000000000, 1.000000000000000000 ) ) ;
#20 = CARTESIAN_POINT ( 'NONE',  ( 0.000000000000000000, 0.000000000000000000, 0.000000000000000000 ) ) ;
#21 = ADVANCED_FACE ( 'NONE', ( #22 ), #79, .F. ) ;
#22 = FACE_OUTER_BOUND ( 'NONE', #194, .T. ) ;
#23 = AXIS2_PLACEMENT_3D ( 'NONE', #285, #143, #129 ) ;
#24 = CALENDAR_DATE ( 2021, 25, 10 ) ;
#25 = APPLICATION_PROTOCOL_DEFINITION ( 'international standard', 'config_control_design', 1994, #63 ) ;
#26 = DIRECTION ( 'NONE',  ( 0.000000000000000000, 0.000000000000000000, 1.000000000000000000 ) ) ;
#27 = CARTESIAN_POINT ( 'NONE',  ( -8.000000000000000000, 9.797174393178825657E-16, 40.00000000000000000 ) ) ;
#28 = VECTOR ( 'NONE', #93, 1000.000000000000000 ) ;
#29 = DIRECTION ( 'NONE',  ( 0.000000000000000000, 0.000000000000000000, -1.000000000000000000 ) ) ;
#30 = FACE_OUTER_BOUND ( 'NONE', #229, .T. ) ;
#31 = DIRECTION ( 'NONE',  ( 0.000000000000000000, 0.000000000000000000, 1.000000000000000000 ) ) ;
#32 = AXIS2_PLACEMENT_3D ( 'NONE', #20, #74, #178 ) ;
#33 = EDGE_LOOP ( 'NONE', ( #188, #317, #299, #175 ) ) ;
#34 = CALENDAR_DATE ( 2021, 25, 10 ) ;
#35 = CARTESIAN_POINT ( 'NONE',  ( 25.00000000000000000, 0.000000000000000000, 0.000000000000000000 ) ) ;
#36 = EDGE_CURVE ( 'NONE', #40, #318, #282, .T. ) ;
#37 = EDGE_LOOP ( 'NONE', ( #121, #286 ) ) ;
#38 = APPROVAL_DATE_TIME ( #289, #80 ) ;
#39 = DIRECTION ( 'NONE',  ( -1.000000000000000000, 0.000000000000000000, 0.000000000000000000 ) ) ;
#40 = VERTEX_POINT ( 'NONE', #197 ) ;
#41 = CARTESIAN_POINT ( 'NONE',  ( 0.000000000000000000, 0.000000000000000000, 40.00000000000000000 ) ) ;
#42 = ORIENTED_EDGE ( 'NONE', *, *, #65, .T. ) ;
#43 = CIRCLE ( 'NONE', #32, 8.000000000000000000 ) ;
#44 = EDGE_CURVE ( 'NONE', #127, #40, #295, .T. ) ;
#45 = DIRECTION ( 'NONE',  ( 0.000000000000000000, 0.000000000000000000, 1.000000000000000000 ) ) ;
#46 = MANIFOLD_SOLID_BREP ( 'Imported1', #159 ) ;
#47 = EDGE_LOOP ( 'NONE', ( #253, #42, #273, #312 ) ) ;
#48 = CARTESIAN_POINT ( 'NONE',  ( 13.00000000000000000, 0.000000000000000000, 100.0000000000000000 ) ) ;
#49 = ORIENTED_EDGE ( 'NONE', *, *, #208, .F. ) ;
#50 = AXIS2_PLACEMENT_3D ( 'NONE', #10, #190, #316 ) ;
#51 = CARTESIAN_POINT ( 'NONE',  ( -13.00000000000000000, 1.592040838891559095E-15, 40.00000000000000000 ) ) ;
#52 = DIRECTION ( 'NONE',  ( 0.000000000000000000, 0.000000000000000000, 1.000000000000000000 ) ) ;
#53 = CC_DESIGN_PERSON_AND_ORGANIZATION_ASSIGNMENT ( #264, #235, ( #110 ) ) ;
#54 = ADVANCED_FACE ( 'NONE', ( #183 ), #100, .F. ) ;
#55 = CARTESIAN_POINT ( 'NONE',  ( 0.000000000000000000, 0.000000000000000000, 100.0000000000000000 ) ) ;
#56 = AXIS2_PLACEMENT_3D ( 'NONE', #55, #31, #210 ) ;
#57 = CARTESIAN_POINT ( 'NONE',  ( 25.00000000000000000, 0.000000000000000000, 100.0000000000000000 ) ) ;
#58 = PERSON_AND_ORGANIZATION_ROLE ( 'creator' ) ;
#59 = CARTESIAN_POINT ( 'NONE',  ( 0.000000000000000000, 0.000000000000000000, 25.00000000000000000 ) ) ;
#60 = ORIENTED_EDGE ( 'NONE', *, *, #134, .T. ) ;
#61 = PLANE ( 'NONE',  #167 ) ;
#62 =( GEOMETRIC_REPRESENTATION_CONTEXT ( 3 ) GLOBAL_UNCERTAINTY_ASSIGNED_CONTEXT ( ( #185 ) ) GLOBAL_UNIT_ASSIGNED_CONTEXT ( ( #241, #328, #275 ) ) REPRESENTATION_CONTEXT ( 'NONE', 'WORKASPACE' ) );
#63 = APPLICATION_CONTEXT ( 'configuration controlled 3d designs of mechanical parts and assemblies' ) ;
#64 = PERSON_AND_ORGANIZATION ( #112, #155 ) ;
#65 = EDGE_CURVE ( 'NONE', #211, #309, #326, .T. ) ;
#66 = DIRECTION ( 'NONE',  ( 1.000000000000000000, 0.000000000000000000, 0.000000000000000000 ) ) ;
#67 = ORIENTED_EDGE ( 'NONE', *, *, #300, .F. ) ;
#68 = CALENDAR_DATE ( 2021, 25, 10 ) ;
#69 = DIRECTION ( 'NONE',  ( 0.000000000000000000, 0.000000000000000000, 1.000000000000000000 ) ) ;
#70 = CIRCLE ( 'NONE', #83, 25.00000000000000000 ) ;
#71 = LOCAL_TIME ( 8, 52, 16.00000000000000000, #101 ) ;
#72 = SHAPE_DEFINITION_REPRESENTATION ( #228, #247 ) ;
#73 = PERSON_AND_ORGANIZATION ( #112, #155 ) ;
#74 = DIRECTION ( 'NONE',  ( 0.000000000000000000, 0.000000000000000000, 1.000000000000000000 ) ) ;
#75 = EDGE_CURVE ( 'NONE', #169, #95, #310, .T. ) ;
#76 = PRODUCT_DEFINITION ( 'UNKNOWN', '', #148, #4 ) ;
#77 = CARTESIAN_POINT ( 'NONE',  ( 0.000000000000000000, 0.000000000000000000, 40.00000000000000000 ) ) ;
#78 = MECHANICAL_CONTEXT ( 'NONE', #63, 'mechanical' ) ;
#79 = CYLINDRICAL_SURFACE ( 'NONE', #97, 13.00000000000000000 ) ;
#80 = APPROVAL ( #189, 'UNSPECIFIED' ) ;
#81 = DIRECTION ( 'NONE',  ( 1.000000000000000000, 0.000000000000000000, 0.000000000000000000 ) ) ;
#82 = AXIS2_PLACEMENT_3D ( 'NONE', #14, #180, #281 ) ;
#83 = AXIS2_PLACEMENT_3D ( 'NONE', #321, #45, #319 ) ;
#84 = CALENDAR_DATE ( 2021, 25, 10 ) ;
#85 = AXIS2_PLACEMENT_3D ( 'NONE', #243, #52, #218 ) ;
#86 = AXIS2_PLACEMENT_3D ( 'NONE', #59, #216, #195 ) ;
#87 = EDGE_LOOP ( 'NONE', ( #9, #263 ) ) ;
#88 = CYLINDRICAL_SURFACE ( 'NONE', #191, 8.000000000000000000 ) ;
#89 = FACE_OUTER_BOUND ( 'NONE', #33, .T. ) ;
#90 = CC_DESIGN_DATE_AND_TIME_ASSIGNMENT ( #238, #259, ( #76 ) ) ;
#91 = VERTEX_POINT ( 'NONE', #8 ) ;
#92 = CALENDAR_DATE ( 2021, 25, 10 ) ;
#93 = DIRECTION ( 'NONE',  ( 0.000000000000000000, 0.000000000000000000, 1.000000000000000000 ) ) ;
#94 = DIRECTION ( 'NONE',  ( 0.000000000000000000, 0.000000000000000000, 1.000000000000000000 ) ) ;
#95 = VERTEX_POINT ( 'NONE', #163 ) ;
#96 = AXIS2_PLACEMENT_3D ( 'NONE', #271, #220, #131 ) ;
#97 = AXIS2_PLACEMENT_3D ( 'NONE', #132, #177, #246 ) ;
#98 = DIRECTION ( 'NONE',  ( 1.000000000000000000, 0.000000000000000000, 0.000000000000000000 ) ) ;
#99 = LOCAL_TIME ( 8, 52, 16.00000000000000000, #204 ) ;
#100 = CYLINDRICAL_SURFACE ( 'NONE', #96, 8.000000000000000000 ) ;
#101 = COORDINATED_UNIVERSAL_TIME_OFFSET ( 9, 0, .AHEAD. ) ;
#102 = APPROVAL_DATE_TIME ( #219, #249 ) ;
#103 = ADVANCED_FACE ( 'NONE', ( #118 ), #88, .F. ) ;
#104 = CARTESIAN_POINT ( 'NONE',  ( -25.00000000000000000, 3.061616997868383043E-15, 40.00000000000000000 ) ) ;
#105 = AXIS2_PLACEMENT_3D ( 'NONE', #77, #184, #221 ) ;
#106 = APPLICATION_CONTEXT ( 'configuration controlled 3d designs of mechanical parts and assemblies' ) ;
#107 = PRODUCT ( 'bj400-16100', 'bj400-16100', '', ( #78 ) ) ;
#108 = APPROVAL_ROLE ( '' ) ;
#109 = VECTOR ( 'NONE', #125, 1000.000000000000000 ) ;
#110 = SECURITY_CLASSIFICATION ( '', '', #165 ) ;
#111 = DIRECTION ( 'NONE',  ( 0.000000000000000000, 0.000000000000000000, 1.000000000000000000 ) ) ;
#112 = PERSON ( 'UNSPECIFIED', 'UNSPECIFIED', 'UNSPECIFIED', ('UNSPECIFIED'), ('UNSPECIFIED'), ('UNSPECIFIED') ) ;
#113 = DIRECTION ( 'NONE',  ( 0.000000000000000000, 0.000000000000000000, 1.000000000000000000 ) ) ;
#114 = DIRECTION ( 'NONE',  ( 1.000000000000000000, 0.000000000000000000, 0.000000000000000000 ) ) ;
#115 = ADVANCED_FACE ( 'NONE', ( #3, #30 ), #160, .F. ) ;
#116 = COORDINATED_UNIVERSAL_TIME_OFFSET ( 9, 0, .AHEAD. ) ;
#117 = VECTOR ( 'NONE', #298, 1000.000000000000000 ) ;
#118 = FACE_OUTER_BOUND ( 'NONE', #291, .T. ) ;
#119 = FACE_OUTER_BOUND ( 'NONE', #320, .T. ) ;
#120 = EDGE_CURVE ( 'NONE', #16, #309, #256, .T. ) ;
#121 = ORIENTED_EDGE ( 'NONE', *, *, #134, .F. ) ;
#122 = CARTESIAN_POINT ( 'NONE',  ( 13.00000000000000000, 0.000000000000000000, 40.00000000000000000 ) ) ;
#123 = EDGE_LOOP ( 'NONE', ( #135, #209 ) ) ;
#124 = DATE_AND_TIME ( #34, #193 ) ;
#125 = DIRECTION ( 'NONE',  ( 0.000000000000000000, 0.000000000000000000, 1.000000000000000000 ) ) ;
#126 = CIRCLE ( 'NONE', #136, 13.00000000000000000 ) ;
#127 = VERTEX_POINT ( 'NONE', #133 ) ;
#128 = FACE_OUTER_BOUND ( 'NONE', #87, .T. ) ;
#129 = DIRECTION ( 'NONE',  ( 1.000000000000000000, 0.000000000000000000, 0.000000000000000000 ) ) ;
#130 = CC_DESIGN_PERSON_AND_ORGANIZATION_ASSIGNMENT ( #64, #170, ( #148 ) ) ;
#131 = DIRECTION ( 'NONE',  ( 1.000000000000000000, 0.000000000000000000, 0.000000000000000000 ) ) ;
#132 = CARTESIAN_POINT ( 'NONE',  ( 0.000000000000000000, 0.000000000000000000, 40.00000000000000000 ) ) ;
#133 = CARTESIAN_POINT ( 'NONE',  ( -13.00000000000000000, 1.592040838891559095E-15, 25.00000000000000000 ) ) ;
#134 = EDGE_CURVE ( 'NONE', #318, #40, #153, .T. ) ;
#135 = ORIENTED_EDGE ( 'NONE', *, *, #5, .T. ) ;
#136 = AXIS2_PLACEMENT_3D ( 'NONE', #174, #267, #239 ) ;
#137 = ORIENTED_EDGE ( 'NONE', *, *, #75, .F. ) ;
#138 = PERSON_AND_ORGANIZATION ( #112, #155 ) ;
#139 = LOCAL_TIME ( 8, 52, 16.00000000000000000, #149 ) ;
#140 = CARTESIAN_POINT ( 'NONE',  ( 8.000000000000000000, 0.000000000000000000, 0.000000000000000000 ) ) ;
#141 = CC_DESIGN_PERSON_AND_ORGANIZATION_ASSIGNMENT ( #173, #168, ( #76 ) ) ;
#142 = EDGE_LOOP ( 'NONE', ( #146, #288, #258, #236 ) ) ;
#143 = DIRECTION ( 'NONE',  ( 0.000000000000000000, 0.000000000000000000, 1.000000000000000000 ) ) ;
#144 = ORIENTED_EDGE ( 'NONE', *, *, #306, .T. ) ;
#145 = CARTESIAN_POINT ( 'NONE',  ( 13.00000000000000000, 0.000000000000000000, 25.00000000000000000 ) ) ;
#146 = ORIENTED_EDGE ( 'NONE', *, *, #306, .F. ) ;
#147 = FACE_OUTER_BOUND ( 'NONE', #283, .T. ) ;
#148 = PRODUCT_DEFINITION_FORMATION_WITH_SPECIFIED_SOURCE ( 'ANY', '', #107, .NOT_KNOWN. ) ;
#149 = COORDINATED_UNIVERSAL_TIME_OFFSET ( 9, 0, .AHEAD. ) ;
#150 = CARTESIAN_POINT ( 'NONE',  ( -8.000000000000000000, 9.797174393178825657E-16, 25.00000000000000000 ) ) ;
#151 = CARTESIAN_POINT ( 'NONE',  ( 0.000000000000000000, 0.000000000000000000, 100.0000000000000000 ) ) ;
#152 = EDGE_CURVE ( 'NONE', #211, #225, #199, .T. ) ;
#153 = CIRCLE ( 'NONE', #278, 13.00000000000000000 ) ;
#154 = CC_DESIGN_DATE_AND_TIME_ASSIGNMENT ( #124, #242, ( #110 ) ) ;
#155 = ORGANIZATION ( 'UNSPECIFIED', 'UNSPECIFIED', '' ) ;
#156 = DIRECTION ( 'NONE',  ( 0.000000000000000000, 0.000000000000000000, 1.000000000000000000 ) ) ;
#157 = EDGE_CURVE ( 'NONE', #225, #16, #212, .T. ) ;
#158 = VERTEX_POINT ( 'NONE', #140 ) ;
#159 = CLOSED_SHELL ( 'NONE', ( #21, #324, #103, #54, #302, #161, #115, #215, #207 ) ) ;
#160 = PLANE ( 'NONE',  #254 ) ;
#161 = ADVANCED_FACE ( 'NONE', ( #89 ), #232, .T. ) ;
#162 = AXIS2_PLACEMENT_3D ( 'NONE', #41, #94, #13 ) ;
#163 = CARTESIAN_POINT ( 'NONE',  ( 8.000000000000000000, 0.000000000000000000, 25.00000000000000000 ) ) ;
#164 = ORIENTED_EDGE ( 'NONE', *, *, #261, .T. ) ;
#165 = SECURITY_CLASSIFICATION_LEVEL ( 'unclassified' ) ;
#166 = CYLINDRICAL_SURFACE ( 'NONE', #162, 13.00000000000000000 ) ;
#167 = AXIS2_PLACEMENT_3D ( 'NONE', #145, #292, #39 ) ;
#168 = PERSON_AND_ORGANIZATION_ROLE ( 'creator' ) ;
#169 = VERTEX_POINT ( 'NONE', #150 ) ;
#170 = PERSON_AND_ORGANIZATION_ROLE ( 'design_supplier' ) ;
#171 = LINE ( 'NONE', #314, #250 ) ;
#172 = ORIENTED_EDGE ( 'NONE', *, *, #120, .T. ) ;
#173 = PERSON_AND_ORGANIZATION ( #112, #155 ) ;
#174 = CARTESIAN_POINT ( 'NONE',  ( 0.000000000000000000, 0.000000000000000000, 25.00000000000000000 ) ) ;
#175 = ORIENTED_EDGE ( 'NONE', *, *, #323, .F. ) ;
#176 = CIRCLE ( 'NONE', #237, 25.00000000000000000 ) ;
#177 = DIRECTION ( 'NONE',  ( 0.000000000000000000, 0.000000000000000000, 1.000000000000000000 ) ) ;
#178 = DIRECTION ( 'NONE',  ( 1.000000000000000000, 0.000000000000000000, 0.000000000000000000 ) ) ;
#179 = CC_DESIGN_PERSON_AND_ORGANIZATION_ASSIGNMENT ( #284, #58, ( #148 ) ) ;
#180 = DIRECTION ( 'NONE',  ( 0.000000000000000000, 0.000000000000000000, 1.000000000000000000 ) ) ;
#181 = APPROVAL_ROLE ( '' ) ;
#182 = PERSON_AND_ORGANIZATION ( #112, #155 ) ;
#183 = FACE_OUTER_BOUND ( 'NONE', #142, .T. ) ;
#184 = DIRECTION ( 'NONE',  ( 0.000000000000000000, 0.000000000000000000, 1.000000000000000000 ) ) ;
#185 = UNCERTAINTY_MEASURE_WITH_UNIT (LENGTH_MEASURE( 1.000000000000000082E-05 ), #241, 'distance_accuracy_value', 'NONE');
#186 = EDGE_CURVE ( 'NONE', #95, #169, #227, .T. ) ;
#187 = EDGE_CURVE ( 'NONE', #158, #95, #171, .T. ) ;
#188 = ORIENTED_EDGE ( 'NONE', *, *, #65, .F. ) ;
#189 = APPROVAL_STATUS ( 'not_yet_approved' ) ;
#190 = DIRECTION ( 'NONE',  ( 0.000000000000000000, 0.000000000000000000, 1.000000000000000000 ) ) ;
#191 = AXIS2_PLACEMENT_3D ( 'NONE', #251, #156, #114 ) ;
#192 = ORIENTED_EDGE ( 'NONE', *, *, #261, .F. ) ;
#193 = LOCAL_TIME ( 8, 52, 16.00000000000000000, #116 ) ;
#194 = EDGE_LOOP ( 'NONE', ( #304, #269, #7, #192 ) ) ;
#195 = DIRECTION ( 'NONE',  ( 1.000000000000000000, 0.000000000000000000, 0.000000000000000000 ) ) ;
#196 = PLANE ( 'NONE',  #206 ) ;
#197 = CARTESIAN_POINT ( 'NONE',  ( -13.00000000000000000, 1.592040838891559095E-15, 100.0000000000000000 ) ) ;
#198 = PERSON_AND_ORGANIZATION_ROLE ( 'design_owner' ) ;
#199 = CIRCLE ( 'NONE', #274, 25.00000000000000000 ) ;
#200 = CARTESIAN_POINT ( 'NONE',  ( -25.00000000000000000, 3.061616997868383043E-15, 100.0000000000000000 ) ) ;
#201 = CIRCLE ( 'NONE', #23, 8.000000000000000000 ) ;
#202 = CARTESIAN_POINT ( 'NONE',  ( 25.00000000000000000, 0.000000000000000000, 100.0000000000000000 ) ) ;
#203 = DIRECTION ( 'NONE',  ( 0.000000000000000000, 0.000000000000000000, 1.000000000000000000 ) ) ;
#204 = COORDINATED_UNIVERSAL_TIME_OFFSET ( 9, 0, .AHEAD. ) ;
#205 = DIRECTION ( 'NONE',  ( 1.000000000000000000, 0.000000000000000000, 0.000000000000000000 ) ) ;
#206 = AXIS2_PLACEMENT_3D ( 'NONE', #294, #69, #98 ) ;
#207 = ADVANCED_FACE ( 'NONE', ( #287, #128 ), #61, .F. ) ;
#208 = EDGE_CURVE ( 'NONE', #252, #158, #201, .T. ) ;
#209 = ORIENTED_EDGE ( 'NONE', *, *, #208, .T. ) ;
#210 = DIRECTION ( 'NONE',  ( 1.000000000000000000, 0.000000000000000000, 0.000000000000000000 ) ) ;
#211 = VERTEX_POINT ( 'NONE', #217 ) ;
#212 = LINE ( 'NONE', #290, #28 ) ;
#213 = CARTESIAN_POINT ( 'NONE',  ( 0.000000000000000000, 0.000000000000000000, 0.000000000000000000 ) ) ;
#214 = ORIENTED_EDGE ( 'NONE', *, *, #44, .F. ) ;
#215 = ADVANCED_FACE ( 'NONE', ( #119 ), #166, .F. ) ;
#216 = DIRECTION ( 'NONE',  ( 0.000000000000000000, 0.000000000000000000, 1.000000000000000000 ) ) ;
#217 = CARTESIAN_POINT ( 'NONE',  ( -25.00000000000000000, 3.061616997868383043E-15, 0.000000000000000000 ) ) ;
#218 = DIRECTION ( 'NONE',  ( 1.000000000000000000, 0.000000000000000000, 0.000000000000000000 ) ) ;
#219 = DATE_AND_TIME ( #24, #71 ) ;
#220 = DIRECTION ( 'NONE',  ( 0.000000000000000000, 0.000000000000000000, 1.000000000000000000 ) ) ;
#221 = DIRECTION ( 'NONE',  ( 1.000000000000000000, 0.000000000000000000, 0.000000000000000000 ) ) ;
#222 = AXIS2_PLACEMENT_3D ( 'NONE', #260, #240, #66 ) ;
#223 = CARTESIAN_POINT ( 'NONE',  ( 0.000000000000000000, 0.000000000000000000, 100.0000000000000000 ) ) ;
#224 = CC_DESIGN_PERSON_AND_ORGANIZATION_ASSIGNMENT ( #182, #198, ( #107 ) ) ;
#225 = VERTEX_POINT ( 'NONE', #35 ) ;
#226 = DATE_AND_TIME ( #84, #99 ) ;
#227 = CIRCLE ( 'NONE', #222, 8.000000000000000000 ) ;
#228 = PRODUCT_DEFINITION_SHAPE ( 'NONE', 'NONE',  #76 ) ;
#229 = EDGE_LOOP ( 'NONE', ( #172, #6 ) ) ;
#230 = APPROVAL ( #2, 'UNSPECIFIED' ) ;
#231 = EDGE_LOOP ( 'NONE', ( #12, #137 ) ) ;
#232 = CYLINDRICAL_SURFACE ( 'NONE', #50, 25.00000000000000000 ) ;
#233 = ORIENTED_EDGE ( 'NONE', *, *, #276, .F. ) ;
#234 = CARTESIAN_POINT ( 'NONE',  ( -8.000000000000000000, 9.797174393178825657E-16, 0.000000000000000000 ) ) ;
#235 = PERSON_AND_ORGANIZATION_ROLE ( 'classification_officer' ) ;
#236 = ORIENTED_EDGE ( 'NONE', *, *, #186, .T. ) ;
#237 = AXIS2_PLACEMENT_3D ( 'NONE', #151, #203, #81 ) ;
#238 = DATE_AND_TIME ( #92, #139 ) ;
#239 = DIRECTION ( 'NONE',  ( 1.000000000000000000, 0.000000000000000000, 0.000000000000000000 ) ) ;
#240 = DIRECTION ( 'NONE',  ( 0.000000000000000000, 0.000000000000000000, 1.000000000000000000 ) ) ;
#241 =( LENGTH_UNIT ( ) NAMED_UNIT ( * ) SI_UNIT ( .MILLI., .METRE. ) );
#242 = DATE_TIME_ROLE ( 'classification_date' ) ;
#243 = CARTESIAN_POINT ( 'NONE',  ( 0.000000000000000000, 0.000000000000000000, 100.0000000000000000 ) ) ;
#244 = APPROVAL_STATUS ( 'not_yet_approved' ) ;
#245 = CARTESIAN_POINT ( 'NONE',  ( 0.000000000000000000, 0.000000000000000000, 0.000000000000000000 ) ) ;
#246 = DIRECTION ( 'NONE',  ( 1.000000000000000000, 0.000000000000000000, 0.000000000000000000 ) ) ;
#247 = ADVANCED_BREP_SHAPE_REPRESENTATION ( 'bj400-16100', ( #46, #296 ), #62 ) ;
#248 = CC_DESIGN_APPROVAL ( #249, ( #110 ) ) ;
#249 = APPROVAL ( #244, 'UNSPECIFIED' ) ;
#250 = VECTOR ( 'NONE', #265, 1000.000000000000000 ) ;
#251 = CARTESIAN_POINT ( 'NONE',  ( 0.000000000000000000, 0.000000000000000000, 40.00000000000000000 ) ) ;
#252 = VERTEX_POINT ( 'NONE', #234 ) ;
#253 = ORIENTED_EDGE ( 'NONE', *, *, #300, .T. ) ;
#254 = AXIS2_PLACEMENT_3D ( 'NONE', #57, #29, #280 ) ;
#255 = LINE ( 'NONE', #27, #117 ) ;
#256 = CIRCLE ( 'NONE', #56, 25.00000000000000000 ) ;
#257 = CC_DESIGN_APPROVAL ( #80, ( #148 ) ) ;
#258 = ORIENTED_EDGE ( 'NONE', *, *, #187, .T. ) ;
#259 = DATE_TIME_ROLE ( 'creation_date' ) ;
#260 = CARTESIAN_POINT ( 'NONE',  ( 0.000000000000000000, 0.000000000000000000, 25.00000000000000000 ) ) ;
#261 = EDGE_CURVE ( 'NONE', #91, #318, #11, .T. ) ;
#262 = EDGE_CURVE ( 'NONE', #127, #91, #311, .T. ) ;
#263 = ORIENTED_EDGE ( 'NONE', *, *, #262, .T. ) ;
#264 = PERSON_AND_ORGANIZATION ( #112, #155 ) ;
#265 = DIRECTION ( 'NONE',  ( 0.000000000000000000, 0.000000000000000000, 1.000000000000000000 ) ) ;
#266 = ORIENTED_EDGE ( 'NONE', *, *, #187, .F. ) ;
#267 = DIRECTION ( 'NONE',  ( 0.000000000000000000, 0.000000000000000000, 1.000000000000000000 ) ) ;
#268 = VECTOR ( 'NONE', #26, 1000.000000000000000 ) ;
#269 = ORIENTED_EDGE ( 'NONE', *, *, #44, .T. ) ;
#270 = DIRECTION ( 'NONE',  ( 1.000000000000000000, 0.000000000000000000, 0.000000000000000000 ) ) ;
#271 = CARTESIAN_POINT ( 'NONE',  ( 0.000000000000000000, 0.000000000000000000, 40.00000000000000000 ) ) ;
#272 = PERSON_AND_ORGANIZATION ( #112, #155 ) ;
#273 = ORIENTED_EDGE ( 'NONE', *, *, #120, .F. ) ;
#274 = AXIS2_PLACEMENT_3D ( 'NONE', #213, #19, #270 ) ;
#275 =( NAMED_UNIT ( * ) SI_UNIT ( $, .STERADIAN. ) SOLID_ANGLE_UNIT ( ) );
#276 = EDGE_CURVE ( 'NONE', #91, #127, #126, .T. ) ;
#277 = VECTOR ( 'NONE', #113, 1000.000000000000000 ) ;
#278 = AXIS2_PLACEMENT_3D ( 'NONE', #223, #111, #205 ) ;
#279 = CC_DESIGN_SECURITY_CLASSIFICATION ( #110, ( #148 ) ) ;
#280 = DIRECTION ( 'NONE',  ( -1.000000000000000000, 0.000000000000000000, 0.000000000000000000 ) ) ;
#281 = DIRECTION ( 'NONE',  ( 1.000000000000000000, 0.000000000000000000, 0.000000000000000000 ) ) ;
#282 = CIRCLE ( 'NONE', #85, 13.00000000000000000 ) ;
#283 = EDGE_LOOP ( 'NONE', ( #67, #1 ) ) ;
#284 = PERSON_AND_ORGANIZATION ( #112, #155 ) ;
#285 = CARTESIAN_POINT ( 'NONE',  ( 0.000000000000000000, 0.000000000000000000, 0.000000000000000000 ) ) ;
#286 = ORIENTED_EDGE ( 'NONE', *, *, #36, .F. ) ;
#287 = FACE_BOUND ( 'NONE', #231, .T. ) ;
#288 = ORIENTED_EDGE ( 'NONE', *, *, #5, .F. ) ;
#289 = DATE_AND_TIME ( #68, #327 ) ;
#290 = CARTESIAN_POINT ( 'NONE',  ( 25.00000000000000000, 0.000000000000000000, 40.00000000000000000 ) ) ;
#291 = EDGE_LOOP ( 'NONE', ( #49, #144, #315, #266 ) ) ;
#292 = DIRECTION ( 'NONE',  ( 0.000000000000000000, 0.000000000000000000, -1.000000000000000000 ) ) ;
#293 = COORDINATED_UNIVERSAL_TIME_OFFSET ( 9, 0, .AHEAD. ) ;
#294 = CARTESIAN_POINT ( 'NONE',  ( 8.000000000000000000, 0.000000000000000000, 0.000000000000000000 ) ) ;
#295 = LINE ( 'NONE', #51, #268 ) ;
#296 = AXIS2_PLACEMENT_3D ( 'NONE', #245, #325, #303 ) ;
#297 = APPLICATION_PROTOCOL_DEFINITION ( 'international standard', 'config_control_design', 1994, #106 ) ;
#298 = DIRECTION ( 'NONE',  ( 0.000000000000000000, 0.000000000000000000, 1.000000000000000000 ) ) ;
#299 = ORIENTED_EDGE ( 'NONE', *, *, #157, .T. ) ;
#300 = EDGE_CURVE ( 'NONE', #225, #211, #70, .T. ) ;
#301 = CYLINDRICAL_SURFACE ( 'NONE', #105, 25.00000000000000000 ) ;
#302 = ADVANCED_FACE ( 'NONE', ( #147, #18 ), #196, .F. ) ;
#303 = DIRECTION ( 'NONE',  ( 1.000000000000000000, 0.000000000000000000, 0.000000000000000000 ) ) ;
#304 = ORIENTED_EDGE ( 'NONE', *, *, #262, .F. ) ;
#305 = FACE_OUTER_BOUND ( 'NONE', #47, .T. ) ;
#306 = EDGE_CURVE ( 'NONE', #252, #169, #255, .T. ) ;
#307 = PRODUCT_RELATED_PRODUCT_CATEGORY ( 'detail', '', ( #107 ) ) ;
#308 = APPROVAL_PERSON_ORGANIZATION ( #73, #230, #108 ) ;
#309 = VERTEX_POINT ( 'NONE', #200 ) ;
#310 = CIRCLE ( 'NONE', #82, 8.000000000000000000 ) ;
#311 = CIRCLE ( 'NONE', #86, 13.00000000000000000 ) ;
#312 = ORIENTED_EDGE ( 'NONE', *, *, #157, .F. ) ;
#313 = APPROVAL_DATE_TIME ( #226, #230 ) ;
#314 = CARTESIAN_POINT ( 'NONE',  ( 8.000000000000000000, 0.000000000000000000, 40.00000000000000000 ) ) ;
#315 = ORIENTED_EDGE ( 'NONE', *, *, #75, .T. ) ;
#316 = DIRECTION ( 'NONE',  ( 1.000000000000000000, 0.000000000000000000, 0.000000000000000000 ) ) ;
#317 = ORIENTED_EDGE ( 'NONE', *, *, #152, .T. ) ;
#318 = VERTEX_POINT ( 'NONE', #48 ) ;
#319 = DIRECTION ( 'NONE',  ( 1.000000000000000000, 0.000000000000000000, 0.000000000000000000 ) ) ;
#320 = EDGE_LOOP ( 'NONE', ( #214, #233, #164, #60 ) ) ;
#321 = CARTESIAN_POINT ( 'NONE',  ( 0.000000000000000000, 0.000000000000000000, 0.000000000000000000 ) ) ;
#322 = APPROVAL_PERSON_ORGANIZATION ( #138, #80, #17 ) ;
#323 = EDGE_CURVE ( 'NONE', #309, #16, #176, .T. ) ;
#324 = ADVANCED_FACE ( 'NONE', ( #305 ), #301, .T. ) ;
#325 = DIRECTION ( 'NONE',  ( 0.000000000000000000, 0.000000000000000000, 1.000000000000000000 ) ) ;
#326 = LINE ( 'NONE', #104, #277 ) ;
#327 = LOCAL_TIME ( 8, 52, 16.00000000000000000, #293 ) ;
#328 =( NAMED_UNIT ( * ) PLANE_ANGLE_UNIT ( ) SI_UNIT ( $, .RADIAN. ) );
#329 = APPROVAL_PERSON_ORGANIZATION ( #272, #249, #181 ) ;
ENDSEC;
END-ISO-10303-21;
