ISO-10303-21;
HEADER;
FILE_DESCRIPTION (( 'STEP AP203' ),
    '1' );
FILE_NAME ('bj300-12025.STEP',
    '2021-10-24T23:51:16',
    ( '' ),
    ( '' ),
    'SwSTEP 2.0',
    'SolidWorks 2020',
    '' );
FILE_SCHEMA (( 'CONFIG_CONTROL_DESIGN' ));
ENDSEC;

DATA;
#1 = CARTESIAN_POINT ( 'NONE',  ( 0.000000000000000000, 0.000000000000000000, 40.00000000000000000 ) ) ;
#2 = ADVANCED_FACE ( 'NONE', ( #11, #108 ), #35, .F. ) ;
#3 = DIRECTION ( 'NONE',  ( 1.000000000000000000, 0.000000000000000000, 0.000000000000000000 ) ) ;
#4 = DIRECTION ( 'NONE',  ( 1.000000000000000000, 0.000000000000000000, 0.000000000000000000 ) ) ;
#5 = DIRECTION ( 'NONE',  ( 0.000000000000000000, 0.000000000000000000, 1.000000000000000000 ) ) ;
#6 = DATE_AND_TIME ( #56, #158 ) ;
#7 = CARTESIAN_POINT ( 'NONE',  ( 0.000000000000000000, 0.000000000000000000, 0.000000000000000000 ) ) ;
#8 = ADVANCED_FACE ( 'NONE', ( #244 ), #12, .F. ) ;
#9 = DATE_AND_TIME ( #262, #234 ) ;
#10 = CYLINDRICAL_SURFACE ( 'NONE', #282, 20.00000000000000000 ) ;
#11 = FACE_BOUND ( 'NONE', #248, .T. ) ;
#12 = CYLINDRICAL_SURFACE ( 'NONE', #242, 7.000000000000000000 ) ;
#13 = APPROVAL_ROLE ( '' ) ;
#14 = EDGE_CURVE ( 'NONE', #131, #324, #156, .T. ) ;
#15 = ORIENTED_EDGE ( 'NONE', *, *, #87, .F. ) ;
#16 = AXIS2_PLACEMENT_3D ( 'NONE', #44, #226, #3 ) ;
#17 = CC_DESIGN_APPROVAL ( #303, ( #43 ) ) ;
#18 = DIRECTION ( 'NONE',  ( 1.000000000000000000, 0.000000000000000000, 0.000000000000000000 ) ) ;
#19 = LINE ( 'NONE', #45, #109 ) ;
#20 = DIRECTION ( 'NONE',  ( 1.000000000000000000, 0.000000000000000000, 0.000000000000000000 ) ) ;
#21 = VECTOR ( 'NONE', #92, 1000.000000000000000 ) ;
#22 = CYLINDRICAL_SURFACE ( 'NONE', #233, 10.00000000000000000 ) ;
#23 =( NAMED_UNIT ( * ) PLANE_ANGLE_UNIT ( ) SI_UNIT ( $, .RADIAN. ) );
#24 = EDGE_CURVE ( 'NONE', #249, #187, #190, .T. ) ;
#25 = LINE ( 'NONE', #203, #240 ) ;
#26 = PERSON_AND_ORGANIZATION_ROLE ( 'classification_officer' ) ;
#27 = FACE_OUTER_BOUND ( 'NONE', #116, .T. ) ;
#28 = MANIFOLD_SOLID_BREP ( 'Imported1', #61 ) ;
#29 = DIRECTION ( 'NONE',  ( -1.000000000000000000, 0.000000000000000000, 0.000000000000000000 ) ) ;
#30 = EDGE_CURVE ( 'NONE', #316, #115, #25, .T. ) ;
#31 = COORDINATED_UNIVERSAL_TIME_OFFSET ( 9, 0, .AHEAD. ) ;
#32 = CARTESIAN_POINT ( 'NONE',  ( -10.00000000000000000, 1.224646799147353256E-15, 12.00000000000000000 ) ) ;
#33 = ORIENTED_EDGE ( 'NONE', *, *, #250, .F. ) ;
#34 = DIRECTION ( 'NONE',  ( 1.000000000000000000, 0.000000000000000000, 0.000000000000000000 ) ) ;
#35 = PLANE ( 'NONE',  #135 ) ;
#36 = PERSON_AND_ORGANIZATION ( #239, #165 ) ;
#37 = DIRECTION ( 'NONE',  ( 0.000000000000000000, 0.000000000000000000, 1.000000000000000000 ) ) ;
#38 = VERTEX_POINT ( 'NONE', #175 ) ;
#39 = ORIENTED_EDGE ( 'NONE', *, *, #14, .T. ) ;
#40 = ORIENTED_EDGE ( 'NONE', *, *, #229, .F. ) ;
#41 = ORIENTED_EDGE ( 'NONE', *, *, #166, .T. ) ;
#42 = DIRECTION ( 'NONE',  ( 0.000000000000000000, 0.000000000000000000, 1.000000000000000000 ) ) ;
#43 = PRODUCT_DEFINITION ( 'UNKNOWN', '', #300, #304 ) ;
#44 = CARTESIAN_POINT ( 'NONE',  ( 0.000000000000000000, 0.000000000000000000, 0.000000000000000000 ) ) ;
#45 = CARTESIAN_POINT ( 'NONE',  ( 10.00000000000000000, 0.000000000000000000, 40.00000000000000000 ) ) ;
#46 = CIRCLE ( 'NONE', #148, 10.00000000000000000 ) ;
#47 = CIRCLE ( 'NONE', #274, 7.000000000000000000 ) ;
#48 = DIRECTION ( 'NONE',  ( 0.000000000000000000, 0.000000000000000000, 1.000000000000000000 ) ) ;
#49 = CARTESIAN_POINT ( 'NONE',  ( 20.00000000000000000, 0.000000000000000000, 40.00000000000000000 ) ) ;
#50 = MECHANICAL_CONTEXT ( 'NONE', #96, 'mechanical' ) ;
#51 = CARTESIAN_POINT ( 'NONE',  ( 20.00000000000000000, 0.000000000000000000, 25.00000000000000000 ) ) ;
#52 = APPROVAL_DATE_TIME ( #103, #261 ) ;
#53 = FACE_OUTER_BOUND ( 'NONE', #313, .T. ) ;
#54 = DIRECTION ( 'NONE',  ( 0.000000000000000000, 0.000000000000000000, 1.000000000000000000 ) ) ;
#55 = ORIENTED_EDGE ( 'NONE', *, *, #87, .T. ) ;
#56 = CALENDAR_DATE ( 2021, 25, 10 ) ;
#57 = ORIENTED_EDGE ( 'NONE', *, *, #307, .T. ) ;
#58 = EDGE_LOOP ( 'NONE', ( #247, #114 ) ) ;
#59 = CYLINDRICAL_SURFACE ( 'NONE', #157, 20.00000000000000000 ) ;
#60 = DIRECTION ( 'NONE',  ( 0.000000000000000000, 0.000000000000000000, 1.000000000000000000 ) ) ;
#61 = CLOSED_SHELL ( 'NONE', ( #286, #162, #224, #2, #8, #137, #78, #112, #204 ) ) ;
#62 = AXIS2_PLACEMENT_3D ( 'NONE', #287, #126, #310 ) ;
#63 = DIRECTION ( 'NONE',  ( 0.000000000000000000, 0.000000000000000000, 1.000000000000000000 ) ) ;
#64 = CYLINDRICAL_SURFACE ( 'NONE', #276, 7.000000000000000000 ) ;
#65 = DIRECTION ( 'NONE',  ( 1.000000000000000000, 0.000000000000000000, 0.000000000000000000 ) ) ;
#66 = AXIS2_PLACEMENT_3D ( 'NONE', #120, #196, #140 ) ;
#67 = AXIS2_PLACEMENT_3D ( 'NONE', #174, #153, #4 ) ;
#68 = DIRECTION ( 'NONE',  ( 0.000000000000000000, 0.000000000000000000, 1.000000000000000000 ) ) ;
#69 = APPROVAL_ROLE ( '' ) ;
#70 = DIRECTION ( 'NONE',  ( 1.000000000000000000, 0.000000000000000000, 0.000000000000000000 ) ) ;
#71 = CALENDAR_DATE ( 2021, 25, 10 ) ;
#72 = CC_DESIGN_PERSON_AND_ORGANIZATION_ASSIGNMENT ( #205, #26, ( #172 ) ) ;
#73 = DIRECTION ( 'NONE',  ( 0.000000000000000000, 0.000000000000000000, 1.000000000000000000 ) ) ;
#74 = AXIS2_PLACEMENT_3D ( 'NONE', #219, #182, #241 ) ;
#75 = EDGE_LOOP ( 'NONE', ( #15, #86 ) ) ;
#76 = SECURITY_CLASSIFICATION_LEVEL ( 'unclassified' ) ;
#77 = CARTESIAN_POINT ( 'NONE',  ( 0.000000000000000000, 0.000000000000000000, 12.00000000000000000 ) ) ;
#78 = ADVANCED_FACE ( 'NONE', ( #27 ), #10, .T. ) ;
#79 = CARTESIAN_POINT ( 'NONE',  ( 10.00000000000000000, 0.000000000000000000, 12.00000000000000000 ) ) ;
#80 = PERSON_AND_ORGANIZATION_ROLE ( 'design_owner' ) ;
#81 = ORIENTED_EDGE ( 'NONE', *, *, #186, .F. ) ;
#82 = ORIENTED_EDGE ( 'NONE', *, *, #291, .F. ) ;
#83 = EDGE_LOOP ( 'NONE', ( #320, #179, #299, #55 ) ) ;
#84 = AXIS2_PLACEMENT_3D ( 'NONE', #308, #118, #169 ) ;
#85 = ORIENTED_EDGE ( 'NONE', *, *, #24, .F. ) ;
#86 = ORIENTED_EDGE ( 'NONE', *, *, #307, .F. ) ;
#87 = EDGE_CURVE ( 'NONE', #184, #251, #46, .T. ) ;
#88 = ORIENTED_EDGE ( 'NONE', *, *, #102, .F. ) ;
#89 = FACE_OUTER_BOUND ( 'NONE', #159, .T. ) ;
#90 = CIRCLE ( 'NONE', #66, 10.00000000000000000 ) ;
#91 = FACE_OUTER_BOUND ( 'NONE', #191, .T. ) ;
#92 = DIRECTION ( 'NONE',  ( 0.000000000000000000, 0.000000000000000000, 1.000000000000000000 ) ) ;
#93 = DIRECTION ( 'NONE',  ( 0.000000000000000000, 0.000000000000000000, 1.000000000000000000 ) ) ;
#94 = CC_DESIGN_PERSON_AND_ORGANIZATION_ASSIGNMENT ( #127, #296, ( #43 ) ) ;
#95 = CARTESIAN_POINT ( 'NONE',  ( -7.000000000000000000, 8.572527594031473190E-16, 40.00000000000000000 ) ) ;
#96 = APPLICATION_CONTEXT ( 'configuration controlled 3d designs of mechanical parts and assemblies' ) ;
#97 = CARTESIAN_POINT ( 'NONE',  ( 0.000000000000000000, 0.000000000000000000, 40.00000000000000000 ) ) ;
#98 = AXIS2_PLACEMENT_3D ( 'NONE', #309, #60, #192 ) ;
#99 = AXIS2_PLACEMENT_3D ( 'NONE', #197, #68, #65 ) ;
#100 = DATE_AND_TIME ( #319, #139 ) ;
#101 = DIRECTION ( 'NONE',  ( 1.000000000000000000, 0.000000000000000000, 0.000000000000000000 ) ) ;
#102 = EDGE_CURVE ( 'NONE', #115, #160, #129, .T. ) ;
#103 = DATE_AND_TIME ( #150, #253 ) ;
#104 = VERTEX_POINT ( 'NONE', #32 ) ;
#105 = APPROVAL_DATE_TIME ( #9, #315 ) ;
#106 = EDGE_CURVE ( 'NONE', #187, #249, #217, .T. ) ;
#107 = DIRECTION ( 'NONE',  ( 1.000000000000000000, 0.000000000000000000, 0.000000000000000000 ) ) ;
#108 = FACE_OUTER_BOUND ( 'NONE', #301, .T. ) ;
#109 = VECTOR ( 'NONE', #305, 1000.000000000000000 ) ;
#110 = CIRCLE ( 'NONE', #99, 10.00000000000000000 ) ;
#111 = APPLICATION_PROTOCOL_DEFINITION ( 'international standard', 'config_control_design', 1994, #145 ) ;
#112 = ADVANCED_FACE ( 'NONE', ( #295, #123 ), #199, .F. ) ;
#113 = DIRECTION ( 'NONE',  ( 0.000000000000000000, 0.000000000000000000, -1.000000000000000000 ) ) ;
#114 = ORIENTED_EDGE ( 'NONE', *, *, #258, .T. ) ;
#115 = VERTEX_POINT ( 'NONE', #236 ) ;
#116 = EDGE_LOOP ( 'NONE', ( #238, #210, #216, #298 ) ) ;
#117 = CARTESIAN_POINT ( 'NONE',  ( 20.00000000000000000, 0.000000000000000000, 0.000000000000000000 ) ) ;
#118 = DIRECTION ( 'NONE',  ( 0.000000000000000000, 0.000000000000000000, 1.000000000000000000 ) ) ;
#119 = EDGE_CURVE ( 'NONE', #316, #212, #47, .T. ) ;
#120 = CARTESIAN_POINT ( 'NONE',  ( 0.000000000000000000, 0.000000000000000000, 12.00000000000000000 ) ) ;
#121 = CIRCLE ( 'NONE', #84, 10.00000000000000000 ) ;
#122 = DIRECTION ( 'NONE',  ( 1.000000000000000000, 0.000000000000000000, 0.000000000000000000 ) ) ;
#123 = FACE_OUTER_BOUND ( 'NONE', #321, .T. ) ;
#124 = CC_DESIGN_SECURITY_CLASSIFICATION ( #172, ( #300 ) ) ;
#125 = DATE_AND_TIME ( #71, #143 ) ;
#126 = DIRECTION ( 'NONE',  ( 0.000000000000000000, 0.000000000000000000, 1.000000000000000000 ) ) ;
#127 = PERSON_AND_ORGANIZATION ( #239, #165 ) ;
#128 =( NAMED_UNIT ( * ) SI_UNIT ( $, .STERADIAN. ) SOLID_ANGLE_UNIT ( ) );
#129 = CIRCLE ( 'NONE', #171, 7.000000000000000000 ) ;
#130 = DIRECTION ( 'NONE',  ( -1.000000000000000000, 0.000000000000000000, 0.000000000000000000 ) ) ;
#131 = VERTEX_POINT ( 'NONE', #290 ) ;
#132 = ORIENTED_EDGE ( 'NONE', *, *, #102, .T. ) ;
#133 = ORIENTED_EDGE ( 'NONE', *, *, #258, .F. ) ;
#134 = CC_DESIGN_PERSON_AND_ORGANIZATION_ASSIGNMENT ( #232, #245, ( #300 ) ) ;
#135 = AXIS2_PLACEMENT_3D ( 'NONE', #79, #113, #130 ) ;
#136 = ORIENTED_EDGE ( 'NONE', *, *, #119, .F. ) ;
#137 = ADVANCED_FACE ( 'NONE', ( #53, #263 ), #180, .F. ) ;
#138 = AXIS2_PLACEMENT_3D ( 'NONE', #269, #37, #246 ) ;
#139 = LOCAL_TIME ( 8, 51, 16.00000000000000000, #214 ) ;
#140 = DIRECTION ( 'NONE',  ( 1.000000000000000000, 0.000000000000000000, 0.000000000000000000 ) ) ;
#141 = LINE ( 'NONE', #49, #209 ) ;
#142 = CARTESIAN_POINT ( 'NONE',  ( -10.00000000000000000, 1.224646799147353256E-15, 40.00000000000000000 ) ) ;
#143 = LOCAL_TIME ( 8, 51, 16.00000000000000000, #31 ) ;
#144 = FACE_OUTER_BOUND ( 'NONE', #271, .T. ) ;
#145 = APPLICATION_CONTEXT ( 'configuration controlled 3d designs of mechanical parts and assemblies' ) ;
#146 = FACE_OUTER_BOUND ( 'NONE', #83, .T. ) ;
#147 = APPROVAL_STATUS ( 'not_yet_approved' ) ;
#148 = AXIS2_PLACEMENT_3D ( 'NONE', #151, #206, #107 ) ;
#149 = APPROVAL_PERSON_ORGANIZATION ( #237, #261, #13 ) ;
#150 = CALENDAR_DATE ( 2021, 25, 10 ) ;
#151 = CARTESIAN_POINT ( 'NONE',  ( 0.000000000000000000, 0.000000000000000000, 25.00000000000000000 ) ) ;
#152 = ORIENTED_EDGE ( 'NONE', *, *, #327, .T. ) ;
#153 = DIRECTION ( 'NONE',  ( 0.000000000000000000, 0.000000000000000000, 1.000000000000000000 ) ) ;
#154 = ORIENTED_EDGE ( 'NONE', *, *, #291, .T. ) ;
#155 = DATE_TIME_ROLE ( 'creation_date' ) ;
#156 = CIRCLE ( 'NONE', #138, 20.00000000000000000 ) ;
#157 = AXIS2_PLACEMENT_3D ( 'NONE', #302, #48, #328 ) ;
#158 = LOCAL_TIME ( 8, 51, 16.00000000000000000, #285 ) ;
#159 = EDGE_LOOP ( 'NONE', ( #270, #297, #323, #81 ) ) ;
#160 = VERTEX_POINT ( 'NONE', #272 ) ;
#161 = ORIENTED_EDGE ( 'NONE', *, *, #30, .F. ) ;
#162 = ADVANCED_FACE ( 'NONE', ( #89 ), #59, .T. ) ;
#163 = CIRCLE ( 'NONE', #326, 20.00000000000000000 ) ;
#164 = APPROVAL_PERSON_ORGANIZATION ( #202, #315, #176 ) ;
#165 = ORGANIZATION ( 'UNSPECIFIED', 'UNSPECIFIED', '' ) ;
#166 = EDGE_CURVE ( 'NONE', #324, #131, #163, .T. ) ;
#167 = LINE ( 'NONE', #142, #268 ) ;
#168 = CARTESIAN_POINT ( 'NONE',  ( -7.000000000000000000, 8.572527594031473190E-16, 0.000000000000000000 ) ) ;
#169 = DIRECTION ( 'NONE',  ( 1.000000000000000000, 0.000000000000000000, 0.000000000000000000 ) ) ;
#170 = DIRECTION ( 'NONE',  ( 0.000000000000000000, 0.000000000000000000, 1.000000000000000000 ) ) ;
#171 = AXIS2_PLACEMENT_3D ( 'NONE', #77, #5, #101 ) ;
#172 = SECURITY_CLASSIFICATION ( '', '', #76 ) ;
#173 =( LENGTH_UNIT ( ) NAMED_UNIT ( * ) SI_UNIT ( .MILLI., .METRE. ) );
#174 = CARTESIAN_POINT ( 'NONE',  ( 0.000000000000000000, 0.000000000000000000, 0.000000000000000000 ) ) ;
#175 = CARTESIAN_POINT ( 'NONE',  ( 10.00000000000000000, 0.000000000000000000, 12.00000000000000000 ) ) ;
#176 = APPROVAL_ROLE ( '' ) ;
#177 = EDGE_CURVE ( 'NONE', #249, #131, #255, .T. ) ;
#178 = DIRECTION ( 'NONE',  ( 1.000000000000000000, 0.000000000000000000, 0.000000000000000000 ) ) ;
#179 = ORIENTED_EDGE ( 'NONE', *, *, #327, .F. ) ;
#180 = PLANE ( 'NONE',  #185 ) ;
#181 = DATE_TIME_ROLE ( 'classification_date' ) ;
#182 = DIRECTION ( 'NONE',  ( 0.000000000000000000, 0.000000000000000000, 1.000000000000000000 ) ) ;
#183 = DIRECTION ( 'NONE',  ( 1.000000000000000000, 0.000000000000000000, 0.000000000000000000 ) ) ;
#184 = VERTEX_POINT ( 'NONE', #284 ) ;
#185 = AXIS2_PLACEMENT_3D ( 'NONE', #293, #54, #34 ) ;
#186 = EDGE_CURVE ( 'NONE', #187, #324, #141, .T. ) ;
#187 = VERTEX_POINT ( 'NONE', #117 ) ;
#188 = ORIENTED_EDGE ( 'NONE', *, *, #106, .F. ) ;
#189 = ADVANCED_BREP_SHAPE_REPRESENTATION ( 'bj300-12025', ( #28, #67 ), #277 ) ;
#190 = CIRCLE ( 'NONE', #74, 20.00000000000000000 ) ;
#191 = EDGE_LOOP ( 'NONE', ( #133, #222, #154, #161 ) ) ;
#192 = DIRECTION ( 'NONE',  ( 1.000000000000000000, 0.000000000000000000, 0.000000000000000000 ) ) ;
#193 = CC_DESIGN_PERSON_AND_ORGANIZATION_ASSIGNMENT ( #36, #257, ( #300 ) ) ;
#194 = CARTESIAN_POINT ( 'NONE',  ( -20.00000000000000000, 2.449293598294706513E-15, 0.000000000000000000 ) ) ;
#195 = CC_DESIGN_APPROVAL ( #315, ( #172 ) ) ;
#196 = DIRECTION ( 'NONE',  ( 0.000000000000000000, 0.000000000000000000, 1.000000000000000000 ) ) ;
#197 = CARTESIAN_POINT ( 'NONE',  ( 0.000000000000000000, 0.000000000000000000, 12.00000000000000000 ) ) ;
#198 = DIRECTION ( 'NONE',  ( 1.000000000000000000, 0.000000000000000000, 0.000000000000000000 ) ) ;
#199 = PLANE ( 'NONE',  #223 ) ;
#200 = VECTOR ( 'NONE', #170, 1000.000000000000000 ) ;
#201 = CC_DESIGN_APPROVAL ( #261, ( #300 ) ) ;
#202 = PERSON_AND_ORGANIZATION ( #239, #165 ) ;
#203 = CARTESIAN_POINT ( 'NONE',  ( 7.000000000000000000, 0.000000000000000000, 40.00000000000000000 ) ) ;
#204 = ADVANCED_FACE ( 'NONE', ( #146 ), #278, .F. ) ;
#205 = PERSON_AND_ORGANIZATION ( #239, #165 ) ;
#206 = DIRECTION ( 'NONE',  ( 0.000000000000000000, 0.000000000000000000, 1.000000000000000000 ) ) ;
#207 = SHAPE_DEFINITION_REPRESENTATION ( #289, #189 ) ;
#208 = DIRECTION ( 'NONE',  ( 0.000000000000000000, 0.000000000000000000, 1.000000000000000000 ) ) ;
#209 = VECTOR ( 'NONE', #306, 1000.000000000000000 ) ;
#210 = ORIENTED_EDGE ( 'NONE', *, *, #24, .T. ) ;
#211 = APPROVAL_STATUS ( 'not_yet_approved' ) ;
#212 = VERTEX_POINT ( 'NONE', #168 ) ;
#213 = CARTESIAN_POINT ( 'NONE',  ( 0.000000000000000000, 0.000000000000000000, 40.00000000000000000 ) ) ;
#214 = COORDINATED_UNIVERSAL_TIME_OFFSET ( 9, 0, .AHEAD. ) ;
#215 = CC_DESIGN_DATE_AND_TIME_ASSIGNMENT ( #100, #181, ( #172 ) ) ;
#216 = ORIENTED_EDGE ( 'NONE', *, *, #186, .T. ) ;
#217 = CIRCLE ( 'NONE', #62, 20.00000000000000000 ) ;
#218 = ORIENTED_EDGE ( 'NONE', *, *, #275, .F. ) ;
#219 = CARTESIAN_POINT ( 'NONE',  ( 0.000000000000000000, 0.000000000000000000, 0.000000000000000000 ) ) ;
#220 = ORIENTED_EDGE ( 'NONE', *, *, #250, .T. ) ;
#221 = PRODUCT_RELATED_PRODUCT_CATEGORY ( 'detail', '', ( #314 ) ) ;
#222 = ORIENTED_EDGE ( 'NONE', *, *, #275, .T. ) ;
#223 = AXIS2_PLACEMENT_3D ( 'NONE', #51, #260, #29 ) ;
#224 = ADVANCED_FACE ( 'NONE', ( #91 ), #64, .F. ) ;
#225 = CARTESIAN_POINT ( 'NONE',  ( 7.000000000000000000, 0.000000000000000000, 0.000000000000000000 ) ) ;
#226 = DIRECTION ( 'NONE',  ( 0.000000000000000000, 0.000000000000000000, 1.000000000000000000 ) ) ;
#227 = APPROVAL_PERSON_ORGANIZATION ( #265, #303, #69 ) ;
#228 = CARTESIAN_POINT ( 'NONE',  ( 0.000000000000000000, 0.000000000000000000, 40.00000000000000000 ) ) ;
#229 = EDGE_CURVE ( 'NONE', #38, #184, #19, .T. ) ;
#230 = DIRECTION ( 'NONE',  ( 0.000000000000000000, 0.000000000000000000, 1.000000000000000000 ) ) ;
#231 = CARTESIAN_POINT ( 'NONE',  ( 0.000000000000000000, 0.000000000000000000, 40.00000000000000000 ) ) ;
#232 = PERSON_AND_ORGANIZATION ( #239, #165 ) ;
#233 = AXIS2_PLACEMENT_3D ( 'NONE', #97, #93, #18 ) ;
#234 = LOCAL_TIME ( 8, 51, 16.00000000000000000, #288 ) ;
#235 = APPROVAL_DATE_TIME ( #125, #303 ) ;
#236 = CARTESIAN_POINT ( 'NONE',  ( 7.000000000000000000, 0.000000000000000000, 12.00000000000000000 ) ) ;
#237 = PERSON_AND_ORGANIZATION ( #239, #165 ) ;
#238 = ORIENTED_EDGE ( 'NONE', *, *, #177, .F. ) ;
#239 = PERSON ( 'UNSPECIFIED', 'UNSPECIFIED', 'UNSPECIFIED', ('UNSPECIFIED'), ('UNSPECIFIED'), ('UNSPECIFIED') ) ;
#240 = VECTOR ( 'NONE', #259, 1000.000000000000000 ) ;
#241 = DIRECTION ( 'NONE',  ( 1.000000000000000000, 0.000000000000000000, 0.000000000000000000 ) ) ;
#242 = AXIS2_PLACEMENT_3D ( 'NONE', #213, #318, #183 ) ;
#243 = AXIS2_PLACEMENT_3D ( 'NONE', #1, #63, #20 ) ;
#244 = FACE_OUTER_BOUND ( 'NONE', #266, .T. ) ;
#245 = PERSON_AND_ORGANIZATION_ROLE ( 'design_supplier' ) ;
#246 = DIRECTION ( 'NONE',  ( 1.000000000000000000, 0.000000000000000000, 0.000000000000000000 ) ) ;
#247 = ORIENTED_EDGE ( 'NONE', *, *, #119, .T. ) ;
#248 = EDGE_LOOP ( 'NONE', ( #88, #82 ) ) ;
#249 = VERTEX_POINT ( 'NONE', #194 ) ;
#250 = EDGE_CURVE ( 'NONE', #104, #38, #90, .T. ) ;
#251 = VERTEX_POINT ( 'NONE', #279 ) ;
#252 = CIRCLE ( 'NONE', #98, 7.000000000000000000 ) ;
#253 = LOCAL_TIME ( 8, 51, 16.00000000000000000, #317 ) ;
#254 = CARTESIAN_POINT ( 'NONE',  ( 0.000000000000000000, 0.000000000000000000, 25.00000000000000000 ) ) ;
#255 = LINE ( 'NONE', #256, #21 ) ;
#256 = CARTESIAN_POINT ( 'NONE',  ( -20.00000000000000000, 2.449293598294706513E-15, 40.00000000000000000 ) ) ;
#257 = PERSON_AND_ORGANIZATION_ROLE ( 'creator' ) ;
#258 = EDGE_CURVE ( 'NONE', #212, #316, #267, .T. ) ;
#259 = DIRECTION ( 'NONE',  ( 0.000000000000000000, 0.000000000000000000, 1.000000000000000000 ) ) ;
#260 = DIRECTION ( 'NONE',  ( 0.000000000000000000, 0.000000000000000000, -1.000000000000000000 ) ) ;
#261 = APPROVAL ( #211, 'UNSPECIFIED' ) ;
#262 = CALENDAR_DATE ( 2021, 25, 10 ) ;
#263 = FACE_BOUND ( 'NONE', #58, .T. ) ;
#264 = ORIENTED_EDGE ( 'NONE', *, *, #294, .T. ) ;
#265 = PERSON_AND_ORGANIZATION ( #239, #165 ) ;
#266 = EDGE_LOOP ( 'NONE', ( #218, #136, #273, #132 ) ) ;
#267 = CIRCLE ( 'NONE', #16, 7.000000000000000000 ) ;
#268 = VECTOR ( 'NONE', #42, 1000.000000000000000 ) ;
#269 = CARTESIAN_POINT ( 'NONE',  ( 0.000000000000000000, 0.000000000000000000, 25.00000000000000000 ) ) ;
#270 = ORIENTED_EDGE ( 'NONE', *, *, #106, .T. ) ;
#271 = EDGE_LOOP ( 'NONE', ( #33, #264, #57, #40 ) ) ;
#272 = CARTESIAN_POINT ( 'NONE',  ( -7.000000000000000000, 8.572527594031473190E-16, 12.00000000000000000 ) ) ;
#273 = ORIENTED_EDGE ( 'NONE', *, *, #30, .T. ) ;
#274 = AXIS2_PLACEMENT_3D ( 'NONE', #7, #73, #178 ) ;
#275 = EDGE_CURVE ( 'NONE', #212, #160, #329, .T. ) ;
#276 = AXIS2_PLACEMENT_3D ( 'NONE', #228, #230, #122 ) ;
#277 =( GEOMETRIC_REPRESENTATION_CONTEXT ( 3 ) GLOBAL_UNCERTAINTY_ASSIGNED_CONTEXT ( ( #325 ) ) GLOBAL_UNIT_ASSIGNED_CONTEXT ( ( #173, #23, #128 ) ) REPRESENTATION_CONTEXT ( 'NONE', 'WORKASPACE' ) );
#278 = CYLINDRICAL_SURFACE ( 'NONE', #243, 10.00000000000000000 ) ;
#279 = CARTESIAN_POINT ( 'NONE',  ( -10.00000000000000000, 1.224646799147353256E-15, 25.00000000000000000 ) ) ;
#280 = CC_DESIGN_PERSON_AND_ORGANIZATION_ASSIGNMENT ( #312, #80, ( #314 ) ) ;
#281 = CARTESIAN_POINT ( 'NONE',  ( 20.00000000000000000, 0.000000000000000000, 25.00000000000000000 ) ) ;
#282 = AXIS2_PLACEMENT_3D ( 'NONE', #231, #208, #70 ) ;
#283 = DIRECTION ( 'NONE',  ( 0.000000000000000000, 0.000000000000000000, 1.000000000000000000 ) ) ;
#284 = CARTESIAN_POINT ( 'NONE',  ( 10.00000000000000000, 0.000000000000000000, 25.00000000000000000 ) ) ;
#285 = COORDINATED_UNIVERSAL_TIME_OFFSET ( 9, 0, .AHEAD. ) ;
#286 = ADVANCED_FACE ( 'NONE', ( #144 ), #22, .F. ) ;
#287 = CARTESIAN_POINT ( 'NONE',  ( 0.000000000000000000, 0.000000000000000000, 0.000000000000000000 ) ) ;
#288 = COORDINATED_UNIVERSAL_TIME_OFFSET ( 9, 0, .AHEAD. ) ;
#289 = PRODUCT_DEFINITION_SHAPE ( 'NONE', 'NONE',  #43 ) ;
#290 = CARTESIAN_POINT ( 'NONE',  ( -20.00000000000000000, 2.449293598294706513E-15, 25.00000000000000000 ) ) ;
#291 = EDGE_CURVE ( 'NONE', #160, #115, #252, .T. ) ;
#292 = APPLICATION_PROTOCOL_DEFINITION ( 'international standard', 'config_control_design', 1994, #96 ) ;
#293 = CARTESIAN_POINT ( 'NONE',  ( 7.000000000000000000, 0.000000000000000000, 0.000000000000000000 ) ) ;
#294 = EDGE_CURVE ( 'NONE', #104, #251, #167, .T. ) ;
#295 = FACE_BOUND ( 'NONE', #75, .T. ) ;
#296 = PERSON_AND_ORGANIZATION_ROLE ( 'creator' ) ;
#297 = ORIENTED_EDGE ( 'NONE', *, *, #177, .T. ) ;
#298 = ORIENTED_EDGE ( 'NONE', *, *, #14, .F. ) ;
#299 = ORIENTED_EDGE ( 'NONE', *, *, #229, .T. ) ;
#300 = PRODUCT_DEFINITION_FORMATION_WITH_SPECIFIED_SOURCE ( 'ANY', '', #314, .NOT_KNOWN. ) ;
#301 = EDGE_LOOP ( 'NONE', ( #152, #220 ) ) ;
#302 = CARTESIAN_POINT ( 'NONE',  ( 0.000000000000000000, 0.000000000000000000, 40.00000000000000000 ) ) ;
#303 = APPROVAL ( #147, 'UNSPECIFIED' ) ;
#304 = DESIGN_CONTEXT ( 'detailed design', #145, 'design' ) ;
#305 = DIRECTION ( 'NONE',  ( 0.000000000000000000, 0.000000000000000000, 1.000000000000000000 ) ) ;
#306 = DIRECTION ( 'NONE',  ( 0.000000000000000000, 0.000000000000000000, 1.000000000000000000 ) ) ;
#307 = EDGE_CURVE ( 'NONE', #251, #184, #121, .T. ) ;
#308 = CARTESIAN_POINT ( 'NONE',  ( 0.000000000000000000, 0.000000000000000000, 25.00000000000000000 ) ) ;
#309 = CARTESIAN_POINT ( 'NONE',  ( 0.000000000000000000, 0.000000000000000000, 12.00000000000000000 ) ) ;
#310 = DIRECTION ( 'NONE',  ( 1.000000000000000000, 0.000000000000000000, 0.000000000000000000 ) ) ;
#311 = APPROVAL_STATUS ( 'not_yet_approved' ) ;
#312 = PERSON_AND_ORGANIZATION ( #239, #165 ) ;
#313 = EDGE_LOOP ( 'NONE', ( #188, #85 ) ) ;
#314 = PRODUCT ( 'bj300-12025', 'bj300-12025', '', ( #50 ) ) ;
#315 = APPROVAL ( #311, 'UNSPECIFIED' ) ;
#316 = VERTEX_POINT ( 'NONE', #225 ) ;
#317 = COORDINATED_UNIVERSAL_TIME_OFFSET ( 9, 0, .AHEAD. ) ;
#318 = DIRECTION ( 'NONE',  ( 0.000000000000000000, 0.000000000000000000, 1.000000000000000000 ) ) ;
#319 = CALENDAR_DATE ( 2021, 25, 10 ) ;
#320 = ORIENTED_EDGE ( 'NONE', *, *, #294, .F. ) ;
#321 = EDGE_LOOP ( 'NONE', ( #41, #39 ) ) ;
#322 = CC_DESIGN_DATE_AND_TIME_ASSIGNMENT ( #6, #155, ( #43 ) ) ;
#323 = ORIENTED_EDGE ( 'NONE', *, *, #166, .F. ) ;
#324 = VERTEX_POINT ( 'NONE', #281 ) ;
#325 = UNCERTAINTY_MEASURE_WITH_UNIT (LENGTH_MEASURE( 1.000000000000000082E-05 ), #173, 'distance_accuracy_value', 'NONE');
#326 = AXIS2_PLACEMENT_3D ( 'NONE', #254, #283, #198 ) ;
#327 = EDGE_CURVE ( 'NONE', #38, #104, #110, .T. ) ;
#328 = DIRECTION ( 'NONE',  ( 1.000000000000000000, 0.000000000000000000, 0.000000000000000000 ) ) ;
#329 = LINE ( 'NONE', #95, #200 ) ;
ENDSEC;
END-ISO-10303-21;
