ISO-10303-21;
HEADER;
FILE_DESCRIPTION (( 'STEP AP203' ),
    '1' );
FILE_NAME ('bj623-12004.STEP',
    '2021-10-24T23:57:41',
    ( '' ),
    ( '' ),
    'SwSTEP 2.0',
    'SolidWorks 2020',
    '' );
FILE_SCHEMA (( 'CONFIG_CONTROL_DESIGN' ));
ENDSEC;

DATA;
#1 = DESIGN_CONTEXT ( 'detailed design', #190, 'design' ) ;
#2 = EDGE_CURVE ( 'NONE', #213, #146, #68, .T. ) ;
#3 = CYLINDRICAL_SURFACE ( 'NONE', #114, 25.00000000000000000 ) ;
#4 =( GEOMETRIC_REPRESENTATION_CONTEXT ( 3 ) GLOBAL_UNCERTAINTY_ASSIGNED_CONTEXT ( ( #221 ) ) GLOBAL_UNIT_ASSIGNED_CONTEXT ( ( #153, #29, #239 ) ) REPRESENTATION_CONTEXT ( 'NONE', 'WORKASPACE' ) );
#5 = APPROVAL_STATUS ( 'not_yet_approved' ) ;
#6 = LINE ( 'NONE', #191, #176 ) ;
#7 = APPROVAL_DATE_TIME ( #108, #74 ) ;
#8 = CC_DESIGN_PERSON_AND_ORGANIZATION_ASSIGNMENT ( #181, #17, ( #144 ) ) ;
#9 = DATE_AND_TIME ( #128, #226 ) ;
#10 = DIRECTION ( 'NONE',  ( 1.000000000000000000, 0.000000000000000000, 0.000000000000000000 ) ) ;
#11 = ADVANCED_FACE ( 'NONE', ( #159 ), #124, .T. ) ;
#12 = VECTOR ( 'NONE', #219, 1000.000000000000000 ) ;
#13 = CARTESIAN_POINT ( 'NONE',  ( -6.500000000000000000, 0.000000000000000000, 10.00000000000000000 ) ) ;
#14 = ORIENTED_EDGE ( 'NONE', *, *, #165, .T. ) ;
#15 = CARTESIAN_POINT ( 'NONE',  ( -25.00000000000000000, 0.000000000000000000, 0.000000000000000000 ) ) ;
#16 = VECTOR ( 'NONE', #161, 1000.000000000000000 ) ;
#17 = PERSON_AND_ORGANIZATION_ROLE ( 'creator' ) ;
#18 = CARTESIAN_POINT ( 'NONE',  ( 0.000000000000000000, 0.000000000000000000, 10.00000000000000000 ) ) ;
#19 = CYLINDRICAL_SURFACE ( 'NONE', #133, 6.500000000000000000 ) ;
#20 = DIRECTION ( 'NONE',  ( 1.000000000000000000, 0.000000000000000000, 0.000000000000000000 ) ) ;
#21 = AXIS2_PLACEMENT_3D ( 'NONE', #127, #147, #185 ) ;
#22 = CARTESIAN_POINT ( 'NONE',  ( 0.000000000000000000, 0.000000000000000000, 0.000000000000000000 ) ) ;
#23 = EDGE_LOOP ( 'NONE', ( #238, #193 ) ) ;
#24 = PERSON_AND_ORGANIZATION ( #231, #93 ) ;
#25 = CARTESIAN_POINT ( 'NONE',  ( 0.000000000000000000, 0.000000000000000000, 10.00000000000000000 ) ) ;
#26 = ADVANCED_FACE ( 'NONE', ( #123, #202 ), #199, .F. ) ;
#27 = CARTESIAN_POINT ( 'NONE',  ( 25.00000000000000000, 3.061616997868383043E-15, 10.00000000000000000 ) ) ;
#28 = COORDINATED_UNIVERSAL_TIME_OFFSET ( 9, 0, .AHEAD. ) ;
#29 =( NAMED_UNIT ( * ) PLANE_ANGLE_UNIT ( ) SI_UNIT ( $, .RADIAN. ) );
#30 = ORIENTED_EDGE ( 'NONE', *, *, #37, .F. ) ;
#31 = AXIS2_PLACEMENT_3D ( 'NONE', #245, #183, #70 ) ;
#32 = ORIENTED_EDGE ( 'NONE', *, *, #55, .F. ) ;
#33 = ORIENTED_EDGE ( 'NONE', *, *, #37, .T. ) ;
#34 = PRODUCT_RELATED_PRODUCT_CATEGORY ( 'detail', '', ( #182 ) ) ;
#35 = DIRECTION ( 'NONE',  ( 0.000000000000000000, 0.000000000000000000, 1.000000000000000000 ) ) ;
#36 = CARTESIAN_POINT ( 'NONE',  ( -25.00000000000000000, 0.000000000000000000, 10.00000000000000000 ) ) ;
#37 = EDGE_CURVE ( 'NONE', #61, #46, #88, .T. ) ;
#38 = CIRCLE ( 'NONE', #197, 25.00000000000000000 ) ;
#39 = DIRECTION ( 'NONE',  ( -1.000000000000000000, 0.000000000000000000, 0.000000000000000000 ) ) ;
#40 = EDGE_LOOP ( 'NONE', ( #134, #113, #178, #81 ) ) ;
#41 = CARTESIAN_POINT ( 'NONE',  ( 6.500000000000000000, 7.960204194457795477E-16, 10.00000000000000000 ) ) ;
#42 = EDGE_CURVE ( 'NONE', #97, #83, #150, .T. ) ;
#43 = LOCAL_TIME ( 8, 57, 41.00000000000000000, #91 ) ;
#44 = EDGE_LOOP ( 'NONE', ( #171, #236 ) ) ;
#45 = APPROVAL_PERSON_ORGANIZATION ( #227, #62, #233 ) ;
#46 = VERTEX_POINT ( 'NONE', #75 ) ;
#47 = DIRECTION ( 'NONE',  ( 0.000000000000000000, 0.000000000000000000, 1.000000000000000000 ) ) ;
#48 = EDGE_CURVE ( 'NONE', #49, #86, #205, .T. ) ;
#49 = VERTEX_POINT ( 'NONE', #249 ) ;
#50 = CC_DESIGN_SECURITY_CLASSIFICATION ( #208, ( #56 ) ) ;
#51 = DATE_AND_TIME ( #67, #217 ) ;
#52 = FACE_OUTER_BOUND ( 'NONE', #156, .T. ) ;
#53 = COORDINATED_UNIVERSAL_TIME_OFFSET ( 9, 0, .AHEAD. ) ;
#54 = DIRECTION ( 'NONE',  ( 1.000000000000000000, 0.000000000000000000, 0.000000000000000000 ) ) ;
#55 = EDGE_CURVE ( 'NONE', #61, #97, #206, .T. ) ;
#56 = PRODUCT_DEFINITION_FORMATION_WITH_SPECIFIED_SOURCE ( 'ANY', '', #182, .NOT_KNOWN. ) ;
#57 = ORIENTED_EDGE ( 'NONE', *, *, #209, .F. ) ;
#58 = APPROVAL ( #76, 'UNSPECIFIED' ) ;
#59 = LOCAL_TIME ( 8, 57, 41.00000000000000000, #53 ) ;
#60 = FACE_OUTER_BOUND ( 'NONE', #23, .T. ) ;
#61 = VERTEX_POINT ( 'NONE', #41 ) ;
#62 = APPROVAL ( #5, 'UNSPECIFIED' ) ;
#63 = ORIENTED_EDGE ( 'NONE', *, *, #115, .T. ) ;
#64 = VECTOR ( 'NONE', #95, 1000.000000000000000 ) ;
#65 = PERSON_AND_ORGANIZATION ( #231, #93 ) ;
#66 = DIRECTION ( 'NONE',  ( 0.000000000000000000, 0.000000000000000000, -1.000000000000000000 ) ) ;
#67 = CALENDAR_DATE ( 2021, 25, 10 ) ;
#68 = CIRCLE ( 'NONE', #106, 25.00000000000000000 ) ;
#69 = DIRECTION ( 'NONE',  ( 0.000000000000000000, 0.000000000000000000, -1.000000000000000000 ) ) ;
#70 = DIRECTION ( 'NONE',  ( 1.000000000000000000, 0.000000000000000000, 0.000000000000000000 ) ) ;
#71 = DIRECTION ( 'NONE',  ( 0.000000000000000000, 0.000000000000000000, 1.000000000000000000 ) ) ;
#72 = CIRCLE ( 'NONE', #21, 25.00000000000000000 ) ;
#73 = DIRECTION ( 'NONE',  ( 1.000000000000000000, 0.000000000000000000, 0.000000000000000000 ) ) ;
#74 = APPROVAL ( #89, 'UNSPECIFIED' ) ;
#75 = CARTESIAN_POINT ( 'NONE',  ( -6.500000000000000000, 0.000000000000000000, 10.00000000000000000 ) ) ;
#76 = APPROVAL_STATUS ( 'not_yet_approved' ) ;
#77 = CARTESIAN_POINT ( 'NONE',  ( 6.500000000000000000, 7.960204194457795477E-16, 10.00000000000000000 ) ) ;
#78 = ADVANCED_FACE ( 'NONE', ( #164 ), #151, .F. ) ;
#79 = CLOSED_SHELL ( 'NONE', ( #78, #11, #222, #26, #194, #119 ) ) ;
#80 = CC_DESIGN_PERSON_AND_ORGANIZATION_ASSIGNMENT ( #160, #243, ( #56 ) ) ;
#81 = ORIENTED_EDGE ( 'NONE', *, *, #152, .F. ) ;
#82 = DIRECTION ( 'NONE',  ( 0.000000000000000000, 0.000000000000000000, -1.000000000000000000 ) ) ;
#83 = VERTEX_POINT ( 'NONE', #175 ) ;
#84 = ORIENTED_EDGE ( 'NONE', *, *, #42, .F. ) ;
#85 = CARTESIAN_POINT ( 'NONE',  ( 0.000000000000000000, 0.000000000000000000, 10.00000000000000000 ) ) ;
#86 = VERTEX_POINT ( 'NONE', #15 ) ;
#87 = PERSON_AND_ORGANIZATION_ROLE ( 'creator' ) ;
#88 = CIRCLE ( 'NONE', #111, 6.500000000000000000 ) ;
#89 = APPROVAL_STATUS ( 'not_yet_approved' ) ;
#90 = DIRECTION ( 'NONE',  ( 0.000000000000000000, 0.000000000000000000, 1.000000000000000000 ) ) ;
#91 = COORDINATED_UNIVERSAL_TIME_OFFSET ( 9, 0, .AHEAD. ) ;
#92 = DIRECTION ( 'NONE',  ( -1.000000000000000000, 0.000000000000000000, 0.000000000000000000 ) ) ;
#93 = ORGANIZATION ( 'UNSPECIFIED', 'UNSPECIFIED', '' ) ;
#94 = APPROVAL_ROLE ( '' ) ;
#95 = DIRECTION ( 'NONE',  ( 0.000000000000000000, 0.000000000000000000, -1.000000000000000000 ) ) ;
#96 = DIRECTION ( 'NONE',  ( 0.000000000000000000, 0.000000000000000000, -1.000000000000000000 ) ) ;
#97 = VERTEX_POINT ( 'NONE', #135 ) ;
#98 = CARTESIAN_POINT ( 'NONE',  ( 0.000000000000000000, 0.000000000000000000, 10.00000000000000000 ) ) ;
#99 = ORIENTED_EDGE ( 'NONE', *, *, #240, .F. ) ;
#100 = DIRECTION ( 'NONE',  ( -1.000000000000000000, 0.000000000000000000, 0.000000000000000000 ) ) ;
#101 = ORIENTED_EDGE ( 'NONE', *, *, #48, .F. ) ;
#102 = APPROVAL_DATE_TIME ( #9, #62 ) ;
#103 = LINE ( 'NONE', #180, #16 ) ;
#104 = AXIS2_PLACEMENT_3D ( 'NONE', #184, #71, #220 ) ;
#105 = EDGE_CURVE ( 'NONE', #83, #97, #215, .T. ) ;
#106 = AXIS2_PLACEMENT_3D ( 'NONE', #98, #211, #172 ) ;
#107 = APPROVAL_PERSON_ORGANIZATION ( #218, #74, #232 ) ;
#108 = DATE_AND_TIME ( #167, #155 ) ;
#109 = CARTESIAN_POINT ( 'NONE',  ( 0.000000000000000000, 0.000000000000000000, 10.00000000000000000 ) ) ;
#110 = CC_DESIGN_DATE_AND_TIME_ASSIGNMENT ( #198, #120, ( #208 ) ) ;
#111 = AXIS2_PLACEMENT_3D ( 'NONE', #244, #179, #73 ) ;
#112 = DIRECTION ( 'NONE',  ( 0.000000000000000000, 0.000000000000000000, 1.000000000000000000 ) ) ;
#113 = ORIENTED_EDGE ( 'NONE', *, *, #240, .T. ) ;
#114 = AXIS2_PLACEMENT_3D ( 'NONE', #85, #96, #228 ) ;
#115 = EDGE_CURVE ( 'NONE', #46, #83, #177, .T. ) ;
#116 = PLANE ( 'NONE',  #129 ) ;
#117 = ORIENTED_EDGE ( 'NONE', *, *, #105, .F. ) ;
#118 = CC_DESIGN_APPROVAL ( #62, ( #56 ) ) ;
#119 = ADVANCED_FACE ( 'NONE', ( #52 ), #19, .F. ) ;
#120 = DATE_TIME_ROLE ( 'classification_date' ) ;
#121 = CARTESIAN_POINT ( 'NONE',  ( 0.000000000000000000, 0.000000000000000000, 10.00000000000000000 ) ) ;
#122 = APPROVAL_DATE_TIME ( #51, #58 ) ;
#123 = FACE_OUTER_BOUND ( 'NONE', #174, .T. ) ;
#124 = CYLINDRICAL_SURFACE ( 'NONE', #137, 25.00000000000000000 ) ;
#125 = DIRECTION ( 'NONE',  ( 0.000000000000000000, 0.000000000000000000, -1.000000000000000000 ) ) ;
#126 = ORIENTED_EDGE ( 'NONE', *, *, #209, .T. ) ;
#127 = CARTESIAN_POINT ( 'NONE',  ( 0.000000000000000000, 0.000000000000000000, 10.00000000000000000 ) ) ;
#128 = CALENDAR_DATE ( 2021, 25, 10 ) ;
#129 = AXIS2_PLACEMENT_3D ( 'NONE', #109, #188, #166 ) ;
#130 = DATE_AND_TIME ( #242, #43 ) ;
#131 = EDGE_LOOP ( 'NONE', ( #99, #237, #210, #126 ) ) ;
#132 = ORIENTED_EDGE ( 'NONE', *, *, #55, .T. ) ;
#133 = AXIS2_PLACEMENT_3D ( 'NONE', #121, #66, #92 ) ;
#134 = ORIENTED_EDGE ( 'NONE', *, *, #2, .F. ) ;
#135 = CARTESIAN_POINT ( 'NONE',  ( 6.500000000000000000, 7.960204194457795477E-16, 0.000000000000000000 ) ) ;
#136 = APPLICATION_CONTEXT ( 'configuration controlled 3d designs of mechanical parts and assemblies' ) ;
#137 = AXIS2_PLACEMENT_3D ( 'NONE', #18, #69, #39 ) ;
#138 = AXIS2_PLACEMENT_3D ( 'NONE', #25, #125, #100 ) ;
#139 = PERSON_AND_ORGANIZATION ( #231, #93 ) ;
#140 = CIRCLE ( 'NONE', #31, 6.500000000000000000 ) ;
#141 = PERSON_AND_ORGANIZATION_ROLE ( 'classification_officer' ) ;
#142 = PRODUCT_DEFINITION_SHAPE ( 'NONE', 'NONE',  #144 ) ;
#143 = PERSON_AND_ORGANIZATION_ROLE ( 'design_owner' ) ;
#144 = PRODUCT_DEFINITION ( 'UNKNOWN', '', #56, #1 ) ;
#145 = APPROVAL_PERSON_ORGANIZATION ( #24, #58, #94 ) ;
#146 = VERTEX_POINT ( 'NONE', #36 ) ;
#147 = DIRECTION ( 'NONE',  ( 0.000000000000000000, 0.000000000000000000, 1.000000000000000000 ) ) ;
#148 = DIRECTION ( 'NONE',  ( 0.000000000000000000, 0.000000000000000000, 1.000000000000000000 ) ) ;
#149 = CARTESIAN_POINT ( 'NONE',  ( 0.000000000000000000, 0.000000000000000000, 0.000000000000000000 ) ) ;
#150 = CIRCLE ( 'NONE', #216, 6.500000000000000000 ) ;
#151 = CYLINDRICAL_SURFACE ( 'NONE', #138, 6.500000000000000000 ) ;
#152 = EDGE_CURVE ( 'NONE', #146, #86, #103, .T. ) ;
#153 =( LENGTH_UNIT ( ) NAMED_UNIT ( * ) SI_UNIT ( .MILLI., .METRE. ) );
#154 = ADVANCED_BREP_SHAPE_REPRESENTATION ( 'bj623-12004', ( #173, #104 ), #4 ) ;
#155 = LOCAL_TIME ( 8, 57, 41.00000000000000000, #248 ) ;
#156 = EDGE_LOOP ( 'NONE', ( #32, #33, #63, #84 ) ) ;
#157 = CC_DESIGN_PERSON_AND_ORGANIZATION_ASSIGNMENT ( #139, #141, ( #208 ) ) ;
#158 = EDGE_LOOP ( 'NONE', ( #212, #30 ) ) ;
#159 = FACE_OUTER_BOUND ( 'NONE', #40, .T. ) ;
#160 = PERSON_AND_ORGANIZATION ( #231, #93 ) ;
#161 = DIRECTION ( 'NONE',  ( 0.000000000000000000, 0.000000000000000000, -1.000000000000000000 ) ) ;
#162 = MECHANICAL_CONTEXT ( 'NONE', #136, 'mechanical' ) ;
#163 = FACE_OUTER_BOUND ( 'NONE', #131, .T. ) ;
#164 = FACE_OUTER_BOUND ( 'NONE', #169, .T. ) ;
#165 = EDGE_CURVE ( 'NONE', #46, #61, #140, .T. ) ;
#166 = DIRECTION ( 'NONE',  ( 1.000000000000000000, 0.000000000000000000, 0.000000000000000000 ) ) ;
#167 = CALENDAR_DATE ( 2021, 25, 10 ) ;
#168 = AXIS2_PLACEMENT_3D ( 'NONE', #22, #90, #20 ) ;
#169 = EDGE_LOOP ( 'NONE', ( #14, #132, #117, #234 ) ) ;
#170 = CC_DESIGN_DATE_AND_TIME_ASSIGNMENT ( #130, #201, ( #144 ) ) ;
#171 = ORIENTED_EDGE ( 'NONE', *, *, #105, .T. ) ;
#172 = DIRECTION ( 'NONE',  ( 1.000000000000000000, 0.000000000000000000, 0.000000000000000000 ) ) ;
#173 = MANIFOLD_SOLID_BREP ( 'Imported1', #79 ) ;
#174 = EDGE_LOOP ( 'NONE', ( #57, #101 ) ) ;
#175 = CARTESIAN_POINT ( 'NONE',  ( -6.500000000000000000, 0.000000000000000000, 0.000000000000000000 ) ) ;
#176 = VECTOR ( 'NONE', #82, 1000.000000000000000 ) ;
#177 = LINE ( 'NONE', #13, #12 ) ;
#178 = ORIENTED_EDGE ( 'NONE', *, *, #48, .T. ) ;
#179 = DIRECTION ( 'NONE',  ( 0.000000000000000000, 0.000000000000000000, 1.000000000000000000 ) ) ;
#180 = CARTESIAN_POINT ( 'NONE',  ( -25.00000000000000000, 0.000000000000000000, 10.00000000000000000 ) ) ;
#181 = PERSON_AND_ORGANIZATION ( #231, #93 ) ;
#182 = PRODUCT ( 'bj623-12004', 'bj623-12004', '', ( #162 ) ) ;
#183 = DIRECTION ( 'NONE',  ( 0.000000000000000000, 0.000000000000000000, 1.000000000000000000 ) ) ;
#184 = CARTESIAN_POINT ( 'NONE',  ( 0.000000000000000000, 0.000000000000000000, 0.000000000000000000 ) ) ;
#185 = DIRECTION ( 'NONE',  ( 1.000000000000000000, 0.000000000000000000, 0.000000000000000000 ) ) ;
#186 = APPLICATION_PROTOCOL_DEFINITION ( 'international standard', 'config_control_design', 1994, #190 ) ;
#187 = CC_DESIGN_PERSON_AND_ORGANIZATION_ASSIGNMENT ( #247, #143, ( #182 ) ) ;
#188 = DIRECTION ( 'NONE',  ( 0.000000000000000000, 0.000000000000000000, 1.000000000000000000 ) ) ;
#189 = CARTESIAN_POINT ( 'NONE',  ( 0.000000000000000000, 0.000000000000000000, 0.000000000000000000 ) ) ;
#190 = APPLICATION_CONTEXT ( 'configuration controlled 3d designs of mechanical parts and assemblies' ) ;
#191 = CARTESIAN_POINT ( 'NONE',  ( 25.00000000000000000, 3.061616997868383043E-15, 10.00000000000000000 ) ) ;
#192 = CC_DESIGN_APPROVAL ( #74, ( #208 ) ) ;
#193 = ORIENTED_EDGE ( 'NONE', *, *, #2, .T. ) ;
#194 = ADVANCED_FACE ( 'NONE', ( #163 ), #3, .T. ) ;
#195 = DIRECTION ( 'NONE',  ( 1.000000000000000000, 0.000000000000000000, 0.000000000000000000 ) ) ;
#196 = AXIS2_PLACEMENT_3D ( 'NONE', #149, #35, #225 ) ;
#197 = AXIS2_PLACEMENT_3D ( 'NONE', #189, #112, #10 ) ;
#198 = DATE_AND_TIME ( #204, #59 ) ;
#199 = PLANE ( 'NONE',  #168 ) ;
#200 = APPLICATION_PROTOCOL_DEFINITION ( 'international standard', 'config_control_design', 1994, #136 ) ;
#201 = DATE_TIME_ROLE ( 'creation_date' ) ;
#202 = FACE_BOUND ( 'NONE', #44, .T. ) ;
#203 = CC_DESIGN_PERSON_AND_ORGANIZATION_ASSIGNMENT ( #65, #87, ( #56 ) ) ;
#204 = CALENDAR_DATE ( 2021, 25, 10 ) ;
#205 = CIRCLE ( 'NONE', #196, 25.00000000000000000 ) ;
#206 = LINE ( 'NONE', #77, #64 ) ;
#207 = EDGE_CURVE ( 'NONE', #146, #213, #72, .T. ) ;
#208 = SECURITY_CLASSIFICATION ( '', '', #223 ) ;
#209 = EDGE_CURVE ( 'NONE', #86, #49, #38, .T. ) ;
#210 = ORIENTED_EDGE ( 'NONE', *, *, #152, .T. ) ;
#211 = DIRECTION ( 'NONE',  ( 0.000000000000000000, 0.000000000000000000, 1.000000000000000000 ) ) ;
#212 = ORIENTED_EDGE ( 'NONE', *, *, #165, .F. ) ;
#213 = VERTEX_POINT ( 'NONE', #27 ) ;
#214 = CARTESIAN_POINT ( 'NONE',  ( 0.000000000000000000, 0.000000000000000000, 0.000000000000000000 ) ) ;
#215 = CIRCLE ( 'NONE', #241, 6.500000000000000000 ) ;
#216 = AXIS2_PLACEMENT_3D ( 'NONE', #246, #148, #54 ) ;
#217 = LOCAL_TIME ( 8, 57, 41.00000000000000000, #224 ) ;
#218 = PERSON_AND_ORGANIZATION ( #231, #93 ) ;
#219 = DIRECTION ( 'NONE',  ( 0.000000000000000000, 0.000000000000000000, -1.000000000000000000 ) ) ;
#220 = DIRECTION ( 'NONE',  ( 1.000000000000000000, 0.000000000000000000, 0.000000000000000000 ) ) ;
#221 = UNCERTAINTY_MEASURE_WITH_UNIT (LENGTH_MEASURE( 1.000000000000000082E-05 ), #153, 'distance_accuracy_value', 'NONE');
#222 = ADVANCED_FACE ( 'NONE', ( #60, #230 ), #116, .T. ) ;
#223 = SECURITY_CLASSIFICATION_LEVEL ( 'unclassified' ) ;
#224 = COORDINATED_UNIVERSAL_TIME_OFFSET ( 9, 0, .AHEAD. ) ;
#225 = DIRECTION ( 'NONE',  ( 1.000000000000000000, 0.000000000000000000, 0.000000000000000000 ) ) ;
#226 = LOCAL_TIME ( 8, 57, 41.00000000000000000, #28 ) ;
#227 = PERSON_AND_ORGANIZATION ( #231, #93 ) ;
#228 = DIRECTION ( 'NONE',  ( -1.000000000000000000, 0.000000000000000000, 0.000000000000000000 ) ) ;
#229 = SHAPE_DEFINITION_REPRESENTATION ( #142, #154 ) ;
#230 = FACE_BOUND ( 'NONE', #158, .T. ) ;
#231 = PERSON ( 'UNSPECIFIED', 'UNSPECIFIED', 'UNSPECIFIED', ('UNSPECIFIED'), ('UNSPECIFIED'), ('UNSPECIFIED') ) ;
#232 = APPROVAL_ROLE ( '' ) ;
#233 = APPROVAL_ROLE ( '' ) ;
#234 = ORIENTED_EDGE ( 'NONE', *, *, #115, .F. ) ;
#235 = CC_DESIGN_APPROVAL ( #58, ( #144 ) ) ;
#236 = ORIENTED_EDGE ( 'NONE', *, *, #42, .T. ) ;
#237 = ORIENTED_EDGE ( 'NONE', *, *, #207, .F. ) ;
#238 = ORIENTED_EDGE ( 'NONE', *, *, #207, .T. ) ;
#239 =( NAMED_UNIT ( * ) SI_UNIT ( $, .STERADIAN. ) SOLID_ANGLE_UNIT ( ) );
#240 = EDGE_CURVE ( 'NONE', #213, #49, #6, .T. ) ;
#241 = AXIS2_PLACEMENT_3D ( 'NONE', #214, #47, #195 ) ;
#242 = CALENDAR_DATE ( 2021, 25, 10 ) ;
#243 = PERSON_AND_ORGANIZATION_ROLE ( 'design_supplier' ) ;
#244 = CARTESIAN_POINT ( 'NONE',  ( 0.000000000000000000, 0.000000000000000000, 10.00000000000000000 ) ) ;
#245 = CARTESIAN_POINT ( 'NONE',  ( 0.000000000000000000, 0.000000000000000000, 10.00000000000000000 ) ) ;
#246 = CARTESIAN_POINT ( 'NONE',  ( 0.000000000000000000, 0.000000000000000000, 0.000000000000000000 ) ) ;
#247 = PERSON_AND_ORGANIZATION ( #231, #93 ) ;
#248 = COORDINATED_UNIVERSAL_TIME_OFFSET ( 9, 0, .AHEAD. ) ;
#249 = CARTESIAN_POINT ( 'NONE',  ( 25.00000000000000000, 3.061616997868383043E-15, 0.000000000000000000 ) ) ;
ENDSEC;
END-ISO-10303-21;
