ISO-10303-21;
HEADER;
FILE_DESCRIPTION (( 'STEP AP203' ),
    '1' );
FILE_NAME ('bj790-16001.STEP',
    '2021-10-25T00:28:34',
    ( '' ),
    ( '' ),
    'SwSTEP 2.0',
    'SolidWorks 2020',
    '' );
FILE_SCHEMA (( 'CONFIG_CONTROL_DESIGN' ));
ENDSEC;

DATA;
#1 = DIRECTION ( 'NONE',  ( 0.000000000000000000, 0.000000000000000000, 1.000000000000000000 ) ) ;
#2 = VERTEX_POINT ( 'NONE', #340 ) ;
#3 = APPROVAL_PERSON_ORGANIZATION ( #152, #240, #213 ) ;
#4 = CARTESIAN_POINT ( 'NONE',  ( 6.283556016480877027, 0.000000000000000000, 28.71589099982999826 ) ) ;
#5 = LINE ( 'NONE', #384, #392 ) ;
#6 = AXIS2_PLACEMENT_3D ( 'NONE', #358, #140, #54 ) ;
#7 = DIRECTION ( 'NONE',  ( 0.000000000000000000, 0.000000000000000000, 1.000000000000000000 ) ) ;
#8 = AXIS2_PLACEMENT_3D ( 'NONE', #141, #81, #276 ) ;
#9 = FACE_OUTER_BOUND ( 'NONE', #32, .T. ) ;
#10 = CONICAL_SURFACE ( 'NONE', #296, 8.000000000000000000, 0.5235985737060560030 ) ;
#11 = CARTESIAN_POINT ( 'NONE',  ( 4.000000000000000000, 0.000000000000000000, 35.99999999958590280 ) ) ;
#12 = CARTESIAN_POINT ( 'NONE',  ( 7.999999999999996447, 9.797174393178823685E-16, 24.00000000000000000 ) ) ;
#13 = DIRECTION ( 'NONE',  ( 1.224646799147353207E-16, 1.000000000000000000, -0.000000000000000000 ) ) ;
#14 = EDGE_CURVE ( 'NONE', #312, #217, #251, .T. ) ;
#15 = FACE_OUTER_BOUND ( 'NONE', #265, .T. ) ;
#16 = AXIS2_PLACEMENT_3D ( 'NONE', #73, #131, #187 ) ;
#17 = CARTESIAN_POINT ( 'NONE',  ( 0.000000000000000000, 0.000000000000000000, 28.71589099982999826 ) ) ;
#18 = CARTESIAN_POINT ( 'NONE',  ( 0.000000000000000000, 0.000000000000000000, 41.69726453154479628 ) ) ;
#19 = VECTOR ( 'NONE', #121, 1000.000000000000227 ) ;
#20 = CC_DESIGN_PERSON_AND_ORGANIZATION_ASSIGNMENT ( #64, #91, ( #82 ) ) ;
#21 = AXIS2_PLACEMENT_3D ( 'NONE', #364, #114, #107 ) ;
#22 = PERSON_AND_ORGANIZATION ( #97, #123 ) ;
#23 = ORIENTED_EDGE ( 'NONE', *, *, #120, .F. ) ;
#24 = DIRECTION ( 'NONE',  ( 1.000000000000000000, 0.000000000000000000, 0.000000000000000000 ) ) ;
#25 = COORDINATED_UNIVERSAL_TIME_OFFSET ( 9, 0, .AHEAD. ) ;
#26 = VECTOR ( 'NONE', #332, 1000.000000000000000 ) ;
#27 = AXIS2_PLACEMENT_3D ( 'NONE', #143, #108, #194 ) ;
#28 = APPROVAL_ROLE ( '' ) ;
#29 = VERTEX_POINT ( 'NONE', #380 ) ;
#30 = CARTESIAN_POINT ( 'NONE',  ( 0.000000000000000000, 0.000000000000000000, 36.00000000000000000 ) ) ;
#31 = ADVANCED_FACE ( 'NONE', ( #248 ), #310, .T. ) ;
#32 = EDGE_LOOP ( 'NONE', ( #284, #193, #390, #250 ) ) ;
#33 = DIRECTION ( 'NONE',  ( -0.4999998251561786899, 6.123231854517505175E-17, 0.8660255047305424059 ) ) ;
#34 = AXIS2_PLACEMENT_3D ( 'NONE', #294, #385, #351 ) ;
#35 = EDGE_CURVE ( 'NONE', #102, #157, #229, .T. ) ;
#36 = FACE_OUTER_BOUND ( 'NONE', #37, .T. ) ;
#37 = EDGE_LOOP ( 'NONE', ( #348, #56, #274, #343 ) ) ;
#38 = FACE_OUTER_BOUND ( 'NONE', #346, .T. ) ;
#39 = CIRCLE ( 'NONE', #234, 2.500000000000000000 ) ;
#40 = ADVANCED_BREP_SHAPE_REPRESENTATION ( 'bj790-16001', ( #72, #8 ), #263 ) ;
#41 = CONICAL_SURFACE ( 'NONE', #27, 8.000000000000000000, 0.5235985737060560030 ) ;
#42 = EDGE_CURVE ( 'NONE', #395, #29, #316, .T. ) ;
#43 = AXIS2_PLACEMENT_3D ( 'NONE', #289, #292, #258 ) ;
#44 = FACE_OUTER_BOUND ( 'NONE', #134, .T. ) ;
#45 = DIRECTION ( 'NONE',  ( -1.000000000000000000, 0.000000000000000000, 0.000000000000000000 ) ) ;
#46 = EDGE_CURVE ( 'NONE', #405, #341, #164, .T. ) ;
#47 = CARTESIAN_POINT ( 'NONE',  ( -8.000000000000000000, 9.797174393178825657E-16, 41.69726453154479628 ) ) ;
#48 = APPROVAL_PERSON_ORGANIZATION ( #399, #252, #110 ) ;
#49 = DIRECTION ( 'NONE',  ( -1.000000000000000000, 1.224646799147353207E-16, 0.000000000000000000 ) ) ;
#50 = DIRECTION ( 'NONE',  ( 1.000000000000000000, 0.000000000000000000, 0.000000000000000000 ) ) ;
#51 = ADVANCED_FACE ( 'NONE', ( #337 ), #10, .T. ) ;
#52 = CYLINDRICAL_SURFACE ( 'NONE', #396, 8.000000000000000000 ) ;
#53 = CARTESIAN_POINT ( 'NONE',  ( 0.000000000000000000, 0.000000000000000000, 0.000000000000000000 ) ) ;
#54 = DIRECTION ( 'NONE',  ( 1.000000000000000000, 0.000000000000000000, 0.000000000000000000 ) ) ;
#55 = DATE_AND_TIME ( #280, #139 ) ;
#56 = ORIENTED_EDGE ( 'NONE', *, *, #59, .T. ) ;
#57 = EDGE_CURVE ( 'NONE', #324, #312, #103, .T. ) ;
#58 = VECTOR ( 'NONE', #402, 1000.000000000000227 ) ;
#59 = EDGE_CURVE ( 'NONE', #102, #395, #212, .T. ) ;
#60 = ORIENTED_EDGE ( 'NONE', *, *, #124, .T. ) ;
#61 = CARTESIAN_POINT ( 'NONE',  ( -2.500000000000000000, 3.061616997868383141E-16, 41.69726453154479628 ) ) ;
#62 = ORIENTED_EDGE ( 'NONE', *, *, #362, .T. ) ;
#63 = CARTESIAN_POINT ( 'NONE',  ( 0.000000000000000000, 0.000000000000000000, 28.71589099982999826 ) ) ;
#64 = PERSON_AND_ORGANIZATION ( #97, #123 ) ;
#65 = LOCAL_TIME ( 9, 28, 34.00000000000000000, #342 ) ;
#66 = DIRECTION ( 'NONE',  ( 0.000000000000000000, 0.000000000000000000, 1.000000000000000000 ) ) ;
#67 = ORIENTED_EDGE ( 'NONE', *, *, #202, .T. ) ;
#68 = EDGE_LOOP ( 'NONE', ( #366, #321, #75, #209 ) ) ;
#69 = ORIENTED_EDGE ( 'NONE', *, *, #42, .F. ) ;
#70 = DIRECTION ( 'NONE',  ( 1.000000000000000000, 0.000000000000000000, 0.000000000000000000 ) ) ;
#71 = PRODUCT_DEFINITION_FORMATION_WITH_SPECIFIED_SOURCE ( 'ANY', '', #314, .NOT_KNOWN. ) ;
#72 = MANIFOLD_SOLID_BREP ( 'Imported1', #191 ) ;
#73 = CARTESIAN_POINT ( 'NONE',  ( 0.000000000000000000, 0.000000000000000000, 24.00000000000000000 ) ) ;
#74 = DIRECTION ( 'NONE',  ( 0.000000000000000000, 0.000000000000000000, 1.000000000000000000 ) ) ;
#75 = ORIENTED_EDGE ( 'NONE', *, *, #124, .F. ) ;
#76 = DIRECTION ( 'NONE',  ( 0.000000000000000000, 0.000000000000000000, 1.000000000000000000 ) ) ;
#77 = AXIS2_PLACEMENT_3D ( 'NONE', #178, #218, #379 ) ;
#78 = EDGE_CURVE ( 'NONE', #341, #113, #5, .T. ) ;
#79 = DIRECTION ( 'NONE',  ( 1.000000000000000000, 0.000000000000000000, 0.000000000000000000 ) ) ;
#80 = CIRCLE ( 'NONE', #394, 4.000000000184220639 ) ;
#81 = DIRECTION ( 'NONE',  ( 0.000000000000000000, 0.000000000000000000, 1.000000000000000000 ) ) ;
#82 = PRODUCT_DEFINITION ( 'UNKNOWN', '', #71, #269 ) ;
#83 = DIRECTION ( 'NONE',  ( 0.000000000000000000, 0.000000000000000000, -1.000000000000000000 ) ) ;
#84 = AXIS2_PLACEMENT_3D ( 'NONE', #136, #266, #304 ) ;
#85 = FACE_OUTER_BOUND ( 'NONE', #305, .T. ) ;
#86 = CALENDAR_DATE ( 2021, 25, 10 ) ;
#87 = DIRECTION ( 'NONE',  ( 0.000000000000000000, 0.000000000000000000, 1.000000000000000000 ) ) ;
#88 = DATE_AND_TIME ( #86, #318 ) ;
#89 = ORIENTED_EDGE ( 'NONE', *, *, #200, .F. ) ;
#90 = DIRECTION ( 'NONE',  ( 1.000000000000000000, 0.000000000000000000, 0.000000000000000000 ) ) ;
#91 = PERSON_AND_ORGANIZATION_ROLE ( 'creator' ) ;
#92 = CARTESIAN_POINT ( 'NONE',  ( 0.000000000000000000, 0.000000000000000000, 41.69726453154479628 ) ) ;
#93 = CIRCLE ( 'NONE', #186, 7.133974999999999511 ) ;
#94 = DIRECTION ( 'NONE',  ( 1.000000000000000000, 0.000000000000000000, 0.000000000000000000 ) ) ;
#95 = CARTESIAN_POINT ( 'NONE',  ( 8.000000000000000000, 0.000000000000000000, 41.69726453154479628 ) ) ;
#96 = TOROIDAL_SURFACE ( 'NONE', #330, 4.000000000000000000, 4.000000000184219751 ) ;
#97 = PERSON ( 'UNSPECIFIED', 'UNSPECIFIED', 'UNSPECIFIED', ('UNSPECIFIED'), ('UNSPECIFIED'), ('UNSPECIFIED') ) ;
#98 = CIRCLE ( 'NONE', #181, 4.000000000000000000 ) ;
#99 = CARTESIAN_POINT ( 'NONE',  ( 0.000000000000000000, 0.000000000000000000, 0.000000000000000000 ) ) ;
#100 = CARTESIAN_POINT ( 'NONE',  ( 7.133974999999999511, 0.000000000000000000, 0.000000000000000000 ) ) ;
#101 = DIRECTION ( 'NONE',  ( 1.000000000000000000, 0.000000000000000000, 0.000000000000000000 ) ) ;
#102 = VERTEX_POINT ( 'NONE', #126 ) ;
#103 = CIRCLE ( 'NONE', #245, 6.283556016480900119 ) ;
#104 = DIRECTION ( 'NONE',  ( 0.000000000000000000, 0.000000000000000000, 1.000000000000000000 ) ) ;
#105 = ORIENTED_EDGE ( 'NONE', *, *, #325, .T. ) ;
#106 = VECTOR ( 'NONE', #33, 1000.000000000000000 ) ;
#107 = DIRECTION ( 'NONE',  ( -1.000000000000000000, 0.000000000000000000, 0.000000000000000000 ) ) ;
#108 = DIRECTION ( 'NONE',  ( 0.000000000000000000, 0.000000000000000000, 1.000000000000000000 ) ) ;
#109 = EDGE_CURVE ( 'NONE', #312, #324, #220, .T. ) ;
#110 = APPROVAL_ROLE ( '' ) ;
#111 = ORIENTED_EDGE ( 'NONE', *, *, #322, .T. ) ;
#112 = PERSON_AND_ORGANIZATION_ROLE ( 'creator' ) ;
#113 = VERTEX_POINT ( 'NONE', #388 ) ;
#114 = DIRECTION ( 'NONE',  ( 0.000000000000000000, 0.000000000000000000, -1.000000000000000000 ) ) ;
#115 = APPROVAL_DATE_TIME ( #211, #252 ) ;
#116 = ADVANCED_FACE ( 'NONE', ( #386 ), #221, .T. ) ;
#117 = APPROVAL_DATE_TIME ( #88, #190 ) ;
#118 = PERSON_AND_ORGANIZATION ( #97, #123 ) ;
#119 = ORIENTED_EDGE ( 'NONE', *, *, #401, .F. ) ;
#120 = EDGE_CURVE ( 'NONE', #341, #405, #93, .T. ) ;
#121 = DIRECTION ( 'NONE',  ( 0.3420201488746776319, 4.188538805632751309E-17, -0.9396926187662342222 ) ) ;
#122 = EDGE_LOOP ( 'NONE', ( #196, #183, #189, #207 ) ) ;
#123 = ORGANIZATION ( 'UNSPECIFIED', 'UNSPECIFIED', '' ) ;
#124 = EDGE_CURVE ( 'NONE', #217, #2, #406, .T. ) ;
#125 = DIRECTION ( 'NONE',  ( 0.000000000000000000, 0.000000000000000000, 1.000000000000000000 ) ) ;
#126 = CARTESIAN_POINT ( 'NONE',  ( -2.500000000000000000, 3.061616997868383141E-16, 26.00000000000000000 ) ) ;
#127 = DIRECTION ( 'NONE',  ( 0.000000000000000000, 0.000000000000000000, 1.000000000000000000 ) ) ;
#128 = EDGE_LOOP ( 'NONE', ( #23, #253 ) ) ;
#129 = FACE_OUTER_BOUND ( 'NONE', #122, .T. ) ;
#130 = AXIS2_PLACEMENT_3D ( 'NONE', #393, #300, #83 ) ;
#131 = DIRECTION ( 'NONE',  ( 0.000000000000000000, 0.000000000000000000, 1.000000000000000000 ) ) ;
#132 = DIRECTION ( 'NONE',  ( 0.000000000000000000, 0.000000000000000000, 1.000000000000000000 ) ) ;
#133 = CARTESIAN_POINT ( 'NONE',  ( 0.000000000000000000, 0.000000000000000000, 31.99999999940170170 ) ) ;
#134 = EDGE_LOOP ( 'NONE', ( #148, #173, #174, #224 ) ) ;
#135 = DIRECTION ( 'NONE',  ( 0.000000000000000000, 0.000000000000000000, 1.000000000000000000 ) ) ;
#136 = CARTESIAN_POINT ( 'NONE',  ( 0.000000000000000000, 0.000000000000000000, 36.00000000000000000 ) ) ;
#137 = ORIENTED_EDGE ( 'NONE', *, *, #344, .T. ) ;
#138 = CARTESIAN_POINT ( 'NONE',  ( -4.000000000000000000, 6.296861979717909619E-16, 35.99999999958590280 ) ) ;
#139 = LOCAL_TIME ( 9, 28, 34.00000000000000000, #283 ) ;
#140 = DIRECTION ( 'NONE',  ( 0.000000000000000000, 0.000000000000000000, 1.000000000000000000 ) ) ;
#141 = CARTESIAN_POINT ( 'NONE',  ( 0.000000000000000000, 0.000000000000000000, 0.000000000000000000 ) ) ;
#142 = DIRECTION ( 'NONE',  ( 1.000000000000000000, 0.000000000000000000, 0.000000000000000000 ) ) ;
#143 = CARTESIAN_POINT ( 'NONE',  ( 0.000000000000000000, 0.000000000000000000, 1.500000000000000000 ) ) ;
#144 = TOROIDAL_SURFACE ( 'NONE', #160, 4.000000000000000000, 4.000000000184219751 ) ;
#145 = CARTESIAN_POINT ( 'NONE',  ( -7.133974999999999511, 9.266887021063033001E-16, 0.000000000000000000 ) ) ;
#146 = ADVANCED_FACE ( 'NONE', ( #129 ), #96, .T. ) ;
#147 = CARTESIAN_POINT ( 'NONE',  ( 0.000000000000000000, 0.000000000000000000, 1.500000000000000000 ) ) ;
#148 = ORIENTED_EDGE ( 'NONE', *, *, #14, .F. ) ;
#149 = APPROVAL_STATUS ( 'not_yet_approved' ) ;
#150 = VECTOR ( 'NONE', #297, 1000.000000000000000 ) ;
#151 = LOCAL_TIME ( 9, 28, 34.00000000000000000, #361 ) ;
#152 = PERSON_AND_ORGANIZATION ( #97, #123 ) ;
#153 = ORIENTED_EDGE ( 'NONE', *, *, #162, .F. ) ;
#154 = PERSON_AND_ORGANIZATION_ROLE ( 'design_supplier' ) ;
#155 = EDGE_LOOP ( 'NONE', ( #166, #231, #308, #368 ) ) ;
#156 = DIRECTION ( 'NONE',  ( 1.000000000000000000, 0.000000000000000000, 0.000000000000000000 ) ) ;
#157 = VERTEX_POINT ( 'NONE', #260 ) ;
#158 = FACE_BOUND ( 'NONE', #227, .T. ) ;
#159 = EDGE_CURVE ( 'NONE', #157, #29, #228, .T. ) ;
#160 = AXIS2_PLACEMENT_3D ( 'NONE', #133, #363, #50 ) ;
#161 = ORIENTED_EDGE ( 'NONE', *, *, #78, .F. ) ;
#162 = EDGE_CURVE ( 'NONE', #2, #217, #387, .T. ) ;
#163 = CARTESIAN_POINT ( 'NONE',  ( 0.000000000000000000, 2.500000000000000000, 26.00000000000000000 ) ) ;
#164 = CIRCLE ( 'NONE', #184, 7.133974999999999511 ) ;
#165 = PLANE ( 'NONE',  #254 ) ;
#166 = ORIENTED_EDGE ( 'NONE', *, *, #344, .F. ) ;
#167 = PRODUCT_RELATED_PRODUCT_CATEGORY ( 'detail', '', ( #314 ) ) ;
#168 = ORIENTED_EDGE ( 'NONE', *, *, #35, .T. ) ;
#169 = LOCAL_TIME ( 9, 28, 34.00000000000000000, #338 ) ;
#170 = LINE ( 'NONE', #47, #26 ) ;
#171 = CARTESIAN_POINT ( 'NONE',  ( -2.500000000000000000, 3.061616997868383141E-16, 36.00000000000000000 ) ) ;
#172 = CARTESIAN_POINT ( 'NONE',  ( -4.000000000000000000, 4.898587196589412829E-16, 31.99999999940170170 ) ) ;
#173 = ORIENTED_EDGE ( 'NONE', *, *, #57, .F. ) ;
#174 = ORIENTED_EDGE ( 'NONE', *, *, #235, .T. ) ;
#175 =( NAMED_UNIT ( * ) PLANE_ANGLE_UNIT ( ) SI_UNIT ( $, .RADIAN. ) );
#176 = VECTOR ( 'NONE', #74, 1000.000000000000000 ) ;
#177 = APPROVAL_DATE_TIME ( #55, #240 ) ;
#178 = CARTESIAN_POINT ( 'NONE',  ( 0.000000000000000000, 0.000000000000000000, 26.00000000000000000 ) ) ;
#179 = EDGE_CURVE ( 'NONE', #382, #113, #241, .T. ) ;
#180 = PRODUCT_DEFINITION_SHAPE ( 'NONE', 'NONE',  #82 ) ;
#181 = AXIS2_PLACEMENT_3D ( 'NONE', #356, #127, #320 ) ;
#182 = APPROVAL_STATUS ( 'not_yet_approved' ) ;
#183 = ORIENTED_EDGE ( 'NONE', *, *, #401, .T. ) ;
#184 = AXIS2_PLACEMENT_3D ( 'NONE', #345, #1, #24 ) ;
#185 = EDGE_CURVE ( 'NONE', #382, #2, #170, .T. ) ;
#186 = AXIS2_PLACEMENT_3D ( 'NONE', #99, #7, #222 ) ;
#187 = DIRECTION ( 'NONE',  ( 1.000000000000000000, 0.000000000000000000, 0.000000000000000000 ) ) ;
#188 = CARTESIAN_POINT ( 'NONE',  ( -8.000000000000000000, 9.797174393178825657E-16, 1.500000000000000000 ) ) ;
#189 = ORIENTED_EDGE ( 'NONE', *, *, #325, .F. ) ;
#190 = APPROVAL ( #182, 'UNSPECIFIED' ) ;
#191 = CLOSED_SHELL ( 'NONE', ( #257, #31, #397, #146, #359, #116, #295, #328, #290, #285, #214, #51, #383 ) ) ;
#192 = DIRECTION ( 'NONE',  ( 1.000000000000000000, 0.000000000000000000, 0.000000000000000000 ) ) ;
#193 = ORIENTED_EDGE ( 'NONE', *, *, #232, .F. ) ;
#194 = DIRECTION ( 'NONE',  ( 1.000000000000000000, 0.000000000000000000, 0.000000000000000000 ) ) ;
#195 = DIRECTION ( 'NONE',  ( 0.000000000000000000, 0.000000000000000000, 1.000000000000000000 ) ) ;
#196 = ORIENTED_EDGE ( 'NONE', *, *, #109, .T. ) ;
#197 = AXIS2_PLACEMENT_3D ( 'NONE', #272, #132, #70 ) ;
#198 = CARTESIAN_POINT ( 'NONE',  ( 0.000000000000000000, 0.000000000000000000, 1.500000000000000000 ) ) ;
#199 = LINE ( 'NONE', #201, #58 ) ;
#200 = EDGE_CURVE ( 'NONE', #29, #395, #261, .T. ) ;
#201 = CARTESIAN_POINT ( 'NONE',  ( -6.283556016480900119, 0.000000000000000000, 28.71589099982999826 ) ) ;
#202 = EDGE_CURVE ( 'NONE', #312, #268, #347, .T. ) ;
#203 = MECHANICAL_CONTEXT ( 'NONE', #249, 'mechanical' ) ;
#204 = AXIS2_PLACEMENT_3D ( 'NONE', #238, #205, #329 ) ;
#205 = DIRECTION ( 'NONE',  ( 0.000000000000000000, 0.000000000000000000, 1.000000000000000000 ) ) ;
#206 =( NAMED_UNIT ( * ) SI_UNIT ( $, .STERADIAN. ) SOLID_ANGLE_UNIT ( ) );
#207 = ORIENTED_EDGE ( 'NONE', *, *, #202, .F. ) ;
#208 = PERSON_AND_ORGANIZATION ( #97, #123 ) ;
#209 = ORIENTED_EDGE ( 'NONE', *, *, #362, .F. ) ;
#210 = AXIS2_PLACEMENT_3D ( 'NONE', #230, #76, #192 ) ;
#211 = DATE_AND_TIME ( #309, #151 ) ;
#212 = LINE ( 'NONE', #61, #334 ) ;
#213 = APPROVAL_ROLE ( '' ) ;
#214 = ADVANCED_FACE ( 'NONE', ( #15 ), #52, .T. ) ;
#215 = ORIENTED_EDGE ( 'NONE', *, *, #57, .T. ) ;
#216 = DATE_TIME_ROLE ( 'classification_date' ) ;
#217 = VERTEX_POINT ( 'NONE', #12 ) ;
#218 = DIRECTION ( 'NONE',  ( 0.000000000000000000, 0.000000000000000000, 1.000000000000000000 ) ) ;
#219 = ORIENTED_EDGE ( 'NONE', *, *, #235, .F. ) ;
#220 = CIRCLE ( 'NONE', #43, 6.283556016480900119 ) ;
#221 = PLANE ( 'NONE',  #278 ) ;
#222 = DIRECTION ( 'NONE',  ( 1.000000000000000000, 0.000000000000000000, 0.000000000000000000 ) ) ;
#223 = LINE ( 'NONE', #264, #106 ) ;
#224 = ORIENTED_EDGE ( 'NONE', *, *, #162, .T. ) ;
#225 = DIRECTION ( 'NONE',  ( 0.000000000000000000, 0.000000000000000000, 1.000000000000000000 ) ) ;
#226 = LINE ( 'NONE', #95, #176 ) ;
#227 = EDGE_LOOP ( 'NONE', ( #89, #69 ) ) ;
#228 = LINE ( 'NONE', #243, #150 ) ;
#229 = CIRCLE ( 'NONE', #77, 2.500000000000000000 ) ;
#230 = CARTESIAN_POINT ( 'NONE',  ( 0.000000000000000000, 4.000000000000000000, 35.99999999979295495 ) ) ;
#231 = ORIENTED_EDGE ( 'NONE', *, *, #46, .T. ) ;
#232 = EDGE_CURVE ( 'NONE', #157, #102, #39, .T. ) ;
#233 = CARTESIAN_POINT ( 'NONE',  ( -6.283556016480877027, 7.695136762846398520E-16, 28.71589099982999826 ) ) ;
#234 = AXIS2_PLACEMENT_3D ( 'NONE', #398, #355, #79 ) ;
#235 = EDGE_CURVE ( 'NONE', #324, #2, #199, .T. ) ;
#236 = PERSON_AND_ORGANIZATION ( #97, #123 ) ;
#237 = UNCERTAINTY_MEASURE_WITH_UNIT (LENGTH_MEASURE( 1.000000000000000082E-05 ), #301, 'distance_accuracy_value', 'NONE');
#238 = CARTESIAN_POINT ( 'NONE',  ( 0.000000000000000000, 0.000000000000000000, 1.500000000000000000 ) ) ;
#239 = FACE_OUTER_BOUND ( 'NONE', #333, .T. ) ;
#240 = APPROVAL ( #149, 'UNSPECIFIED' ) ;
#241 = CIRCLE ( 'NONE', #204, 8.000000000000000000 ) ;
#242 = CC_DESIGN_APPROVAL ( #252, ( #82 ) ) ;
#243 = CARTESIAN_POINT ( 'NONE',  ( 2.500000000000000000, 0.000000000000000000, 41.69726453154479628 ) ) ;
#244 = CALENDAR_DATE ( 2021, 25, 10 ) ;
#245 = AXIS2_PLACEMENT_3D ( 'NONE', #63, #87, #90 ) ;
#246 = DIRECTION ( 'NONE',  ( 0.000000000000000000, 0.000000000000000000, 1.000000000000000000 ) ) ;
#247 = APPROVAL_PERSON_ORGANIZATION ( #208, #190, #28 ) ;
#248 = FACE_OUTER_BOUND ( 'NONE', #68, .T. ) ;
#249 = APPLICATION_CONTEXT ( 'configuration controlled 3d designs of mechanical parts and assemblies' ) ;
#250 = ORIENTED_EDGE ( 'NONE', *, *, #200, .T. ) ;
#251 = LINE ( 'NONE', #315, #19 ) ;
#252 = APPROVAL ( #360, 'UNSPECIFIED' ) ;
#253 = ORIENTED_EDGE ( 'NONE', *, *, #46, .F. ) ;
#254 = AXIS2_PLACEMENT_3D ( 'NONE', #53, #298, #45 ) ;
#255 = ORIENTED_EDGE ( 'NONE', *, *, #120, .T. ) ;
#256 = CARTESIAN_POINT ( 'NONE',  ( 0.000000000000000000, 0.000000000000000000, 41.69726453154479628 ) ) ;
#257 = ADVANCED_FACE ( 'NONE', ( #370 ), #41, .T. ) ;
#258 = DIRECTION ( 'NONE',  ( 1.000000000000000000, 0.000000000000000000, 0.000000000000000000 ) ) ;
#259 = DIRECTION ( 'NONE',  ( 0.000000000000000000, 0.000000000000000000, 1.000000000000000000 ) ) ;
#260 = CARTESIAN_POINT ( 'NONE',  ( 2.500000000000000000, 0.000000000000000000, 26.00000000000000000 ) ) ;
#261 = CIRCLE ( 'NONE', #84, 2.500000000000000000 ) ;
#262 = DIRECTION ( 'NONE',  ( 1.000000000000000000, 0.000000000000000000, 0.000000000000000000 ) ) ;
#263 =( GEOMETRIC_REPRESENTATION_CONTEXT ( 3 ) GLOBAL_UNCERTAINTY_ASSIGNED_CONTEXT ( ( #237 ) ) GLOBAL_UNIT_ASSIGNED_CONTEXT ( ( #301, #175, #206 ) ) REPRESENTATION_CONTEXT ( 'NONE', 'WORKASPACE' ) );
#264 = CARTESIAN_POINT ( 'NONE',  ( -8.000000000000000000, 9.797174393178825657E-16, 1.500000000000000000 ) ) ;
#265 = EDGE_LOOP ( 'NONE', ( #317, #277, #62, #153 ) ) ;
#266 = DIRECTION ( 'NONE',  ( 0.000000000000000000, 0.000000000000000000, 1.000000000000000000 ) ) ;
#267 = APPLICATION_PROTOCOL_DEFINITION ( 'international standard', 'config_control_design', 1994, #249 ) ;
#268 = VERTEX_POINT ( 'NONE', #11 ) ;
#269 = DESIGN_CONTEXT ( 'detailed design', #378, 'design' ) ;
#270 = DIRECTION ( 'NONE',  ( 0.000000000000000000, 0.000000000000000000, -1.000000000000000000 ) ) ;
#271 = CC_DESIGN_DATE_AND_TIME_ASSIGNMENT ( #377, #311, ( #82 ) ) ;
#272 = CARTESIAN_POINT ( 'NONE',  ( 0.000000000000000000, 0.000000000000000000, 41.69726453154479628 ) ) ;
#273 = ORIENTED_EDGE ( 'NONE', *, *, #109, .F. ) ;
#274 = ORIENTED_EDGE ( 'NONE', *, *, #42, .T. ) ;
#275 = AXIS2_PLACEMENT_3D ( 'NONE', #256, #259, #262 ) ;
#276 = DIRECTION ( 'NONE',  ( 1.000000000000000000, 0.000000000000000000, 0.000000000000000000 ) ) ;
#277 = ORIENTED_EDGE ( 'NONE', *, *, #179, .T. ) ;
#278 = AXIS2_PLACEMENT_3D ( 'NONE', #163, #195, #94 ) ;
#279 = EDGE_CURVE ( 'NONE', #113, #382, #365, .T. ) ;
#280 = CALENDAR_DATE ( 2021, 25, 10 ) ;
#281 = VERTEX_POINT ( 'NONE', #138 ) ;
#282 = SECURITY_CLASSIFICATION ( '', '', #286 ) ;
#283 = COORDINATED_UNIVERSAL_TIME_OFFSET ( 9, 0, .AHEAD. ) ;
#284 = ORIENTED_EDGE ( 'NONE', *, *, #59, .F. ) ;
#285 = ADVANCED_FACE ( 'NONE', ( #44 ), #288, .T. ) ;
#286 = SECURITY_CLASSIFICATION_LEVEL ( 'unclassified' ) ;
#287 = ORIENTED_EDGE ( 'NONE', *, *, #14, .T. ) ;
#288 = CONICAL_SURFACE ( 'NONE', #339, 6.283556016480900119, 0.3490658563039978346 ) ;
#289 = CARTESIAN_POINT ( 'NONE',  ( 0.000000000000000000, 0.000000000000000000, 28.71589099982999826 ) ) ;
#290 = ADVANCED_FACE ( 'NONE', ( #239 ), #144, .T. ) ;
#291 = AXIS2_PLACEMENT_3D ( 'NONE', #92, #66, #403 ) ;
#292 = DIRECTION ( 'NONE',  ( 0.000000000000000000, 0.000000000000000000, 1.000000000000000000 ) ) ;
#293 = DIRECTION ( 'NONE',  ( -1.000000000000000000, 0.000000000000000000, 0.000000000000000000 ) ) ;
#294 = CARTESIAN_POINT ( 'NONE',  ( 0.000000000000000000, 0.000000000000000000, 35.99999999958590280 ) ) ;
#295 = ADVANCED_FACE ( 'NONE', ( #9 ), #299, .F. ) ;
#296 = AXIS2_PLACEMENT_3D ( 'NONE', #147, #372, #375 ) ;
#297 = DIRECTION ( 'NONE',  ( 0.000000000000000000, 0.000000000000000000, 1.000000000000000000 ) ) ;
#298 = DIRECTION ( 'NONE',  ( 0.000000000000000000, 0.000000000000000000, -1.000000000000000000 ) ) ;
#299 = CYLINDRICAL_SURFACE ( 'NONE', #197, 2.500000000000000000 ) ;
#300 = DIRECTION ( 'NONE',  ( 0.000000000000000000, -1.000000000000000000, 0.000000000000000000 ) ) ;
#301 =( LENGTH_UNIT ( ) NAMED_UNIT ( * ) SI_UNIT ( .MILLI., .METRE. ) );
#302 = CC_DESIGN_SECURITY_CLASSIFICATION ( #282, ( #71 ) ) ;
#303 = AXIS2_PLACEMENT_3D ( 'NONE', #30, #246, #156 ) ;
#304 = DIRECTION ( 'NONE',  ( 1.000000000000000000, 0.000000000000000000, 0.000000000000000000 ) ) ;
#305 = EDGE_LOOP ( 'NONE', ( #273, #287, #60, #219 ) ) ;
#306 = CIRCLE ( 'NONE', #34, 4.000000000000000000 ) ;
#307 = SHAPE_DEFINITION_REPRESENTATION ( #180, #40 ) ;
#308 = ORIENTED_EDGE ( 'NONE', *, *, #78, .T. ) ;
#309 = CALENDAR_DATE ( 2021, 25, 10 ) ;
#310 = CYLINDRICAL_SURFACE ( 'NONE', #291, 8.000000000000000000 ) ;
#311 = DATE_TIME_ROLE ( 'creation_date' ) ;
#312 = VERTEX_POINT ( 'NONE', #4 ) ;
#313 = CC_DESIGN_PERSON_AND_ORGANIZATION_ASSIGNMENT ( #22, #154, ( #71 ) ) ;
#314 = PRODUCT ( 'bj790-16001', 'bj790-16001', '', ( #203 ) ) ;
#315 = CARTESIAN_POINT ( 'NONE',  ( 6.283556016480900119, 7.695136762846428103E-16, 28.71589099982999826 ) ) ;
#316 = CIRCLE ( 'NONE', #303, 2.500000000000000000 ) ;
#317 = ORIENTED_EDGE ( 'NONE', *, *, #185, .F. ) ;
#318 = LOCAL_TIME ( 9, 28, 34.00000000000000000, #25 ) ;
#319 = PLANE ( 'NONE',  #210 ) ;
#320 = DIRECTION ( 'NONE',  ( 1.000000000000000000, 0.000000000000000000, 0.000000000000000000 ) ) ;
#321 = ORIENTED_EDGE ( 'NONE', *, *, #185, .T. ) ;
#322 = EDGE_CURVE ( 'NONE', #281, #268, #306, .T. ) ;
#323 = FACE_OUTER_BOUND ( 'NONE', #128, .T. ) ;
#324 = VERTEX_POINT ( 'NONE', #233 ) ;
#325 = EDGE_CURVE ( 'NONE', #268, #281, #98, .T. ) ;
#326 = PERSON_AND_ORGANIZATION_ROLE ( 'design_owner' ) ;
#327 = DIRECTION ( 'NONE',  ( 1.000000000000000000, 0.000000000000000000, 0.000000000000000000 ) ) ;
#328 = ADVANCED_FACE ( 'NONE', ( #38, #158 ), #319, .T. ) ;
#329 = DIRECTION ( 'NONE',  ( 1.000000000000000000, 0.000000000000000000, 0.000000000000000000 ) ) ;
#330 = AXIS2_PLACEMENT_3D ( 'NONE', #391, #225, #101 ) ;
#331 = CONICAL_SURFACE ( 'NONE', #21, 6.283556016480900119, 0.3490658563039978346 ) ;
#332 = DIRECTION ( 'NONE',  ( 0.000000000000000000, 0.000000000000000000, 1.000000000000000000 ) ) ;
#333 = EDGE_LOOP ( 'NONE', ( #119, #215, #67, #371 ) ) ;
#334 = VECTOR ( 'NONE', #125, 1000.000000000000000 ) ;
#335 = DATE_AND_TIME ( #373, #169 ) ;
#336 = EDGE_LOOP ( 'NONE', ( #381, #168 ) ) ;
#337 = FACE_OUTER_BOUND ( 'NONE', #155, .T. ) ;
#338 = COORDINATED_UNIVERSAL_TIME_OFFSET ( 9, 0, .AHEAD. ) ;
#339 = AXIS2_PLACEMENT_3D ( 'NONE', #17, #270, #293 ) ;
#340 = CARTESIAN_POINT ( 'NONE',  ( -7.999999999999996447, 0.000000000000000000, 24.00000000000000000 ) ) ;
#341 = VERTEX_POINT ( 'NONE', #100 ) ;
#342 = COORDINATED_UNIVERSAL_TIME_OFFSET ( 9, 0, .AHEAD. ) ;
#343 = ORIENTED_EDGE ( 'NONE', *, *, #159, .F. ) ;
#344 = EDGE_CURVE ( 'NONE', #405, #382, #223, .T. ) ;
#345 = CARTESIAN_POINT ( 'NONE',  ( 0.000000000000000000, 0.000000000000000000, 0.000000000000000000 ) ) ;
#346 = EDGE_LOOP ( 'NONE', ( #105, #111 ) ) ;
#347 = CIRCLE ( 'NONE', #130, 4.000000000184220639 ) ;
#348 = ORIENTED_EDGE ( 'NONE', *, *, #35, .F. ) ;
#349 = DIRECTION ( 'NONE',  ( 0.4999998251561786899, 0.000000000000000000, 0.8660255047305424059 ) ) ;
#350 = CC_DESIGN_APPROVAL ( #190, ( #71 ) ) ;
#351 = DIRECTION ( 'NONE',  ( 1.000000000000000000, 0.000000000000000000, 0.000000000000000000 ) ) ;
#352 = EDGE_LOOP ( 'NONE', ( #255, #137, #407, #161 ) ) ;
#353 = CC_DESIGN_DATE_AND_TIME_ASSIGNMENT ( #335, #216, ( #282 ) ) ;
#354 = CYLINDRICAL_SURFACE ( 'NONE', #275, 2.500000000000000000 ) ;
#355 = DIRECTION ( 'NONE',  ( 0.000000000000000000, 0.000000000000000000, 1.000000000000000000 ) ) ;
#356 = CARTESIAN_POINT ( 'NONE',  ( 0.000000000000000000, 0.000000000000000000, 35.99999999958590280 ) ) ;
#357 = AXIS2_PLACEMENT_3D ( 'NONE', #198, #135, #327 ) ;
#358 = CARTESIAN_POINT ( 'NONE',  ( 0.000000000000000000, 0.000000000000000000, 24.00000000000000000 ) ) ;
#359 = ADVANCED_FACE ( 'NONE', ( #36 ), #354, .F. ) ;
#360 = APPROVAL_STATUS ( 'not_yet_approved' ) ;
#361 = COORDINATED_UNIVERSAL_TIME_OFFSET ( 9, 0, .AHEAD. ) ;
#362 = EDGE_CURVE ( 'NONE', #113, #217, #226, .T. ) ;
#363 = DIRECTION ( 'NONE',  ( 0.000000000000000000, 0.000000000000000000, 1.000000000000000000 ) ) ;
#364 = CARTESIAN_POINT ( 'NONE',  ( 0.000000000000000000, 0.000000000000000000, 28.71589099982999826 ) ) ;
#365 = CIRCLE ( 'NONE', #357, 8.000000000000000000 ) ;
#366 = ORIENTED_EDGE ( 'NONE', *, *, #279, .T. ) ;
#367 = PERSON_AND_ORGANIZATION ( #97, #123 ) ;
#368 = ORIENTED_EDGE ( 'NONE', *, *, #179, .F. ) ;
#369 = CC_DESIGN_PERSON_AND_ORGANIZATION_ASSIGNMENT ( #118, #404, ( #282 ) ) ;
#370 = FACE_OUTER_BOUND ( 'NONE', #352, .T. ) ;
#371 = ORIENTED_EDGE ( 'NONE', *, *, #322, .F. ) ;
#372 = DIRECTION ( 'NONE',  ( 0.000000000000000000, 0.000000000000000000, 1.000000000000000000 ) ) ;
#373 = CALENDAR_DATE ( 2021, 25, 10 ) ;
#374 = CC_DESIGN_APPROVAL ( #240, ( #282 ) ) ;
#375 = DIRECTION ( 'NONE',  ( 1.000000000000000000, 0.000000000000000000, 0.000000000000000000 ) ) ;
#376 = CC_DESIGN_PERSON_AND_ORGANIZATION_ASSIGNMENT ( #236, #326, ( #314 ) ) ;
#377 = DATE_AND_TIME ( #244, #65 ) ;
#378 = APPLICATION_CONTEXT ( 'configuration controlled 3d designs of mechanical parts and assemblies' ) ;
#379 = DIRECTION ( 'NONE',  ( 1.000000000000000000, 0.000000000000000000, 0.000000000000000000 ) ) ;
#380 = CARTESIAN_POINT ( 'NONE',  ( 2.500000000000000000, 0.000000000000000000, 36.00000000000000000 ) ) ;
#381 = ORIENTED_EDGE ( 'NONE', *, *, #232, .T. ) ;
#382 = VERTEX_POINT ( 'NONE', #188 ) ;
#383 = ADVANCED_FACE ( 'NONE', ( #323 ), #165, .T. ) ;
#384 = CARTESIAN_POINT ( 'NONE',  ( 8.000000000000000000, 0.000000000000000000, 1.500000000000000000 ) ) ;
#385 = DIRECTION ( 'NONE',  ( 0.000000000000000000, 0.000000000000000000, 1.000000000000000000 ) ) ;
#386 = FACE_OUTER_BOUND ( 'NONE', #336, .T. ) ;
#387 = CIRCLE ( 'NONE', #6, 8.000000000000000000 ) ;
#388 = CARTESIAN_POINT ( 'NONE',  ( 8.000000000000000000, 0.000000000000000000, 1.500000000000000000 ) ) ;
#389 = CC_DESIGN_PERSON_AND_ORGANIZATION_ASSIGNMENT ( #367, #112, ( #71 ) ) ;
#390 = ORIENTED_EDGE ( 'NONE', *, *, #159, .T. ) ;
#391 = CARTESIAN_POINT ( 'NONE',  ( 0.000000000000000000, 0.000000000000000000, 31.99999999940170170 ) ) ;
#392 = VECTOR ( 'NONE', #349, 1000.000000000000000 ) ;
#393 = CARTESIAN_POINT ( 'NONE',  ( 4.000000000000000000, 0.000000000000000000, 31.99999999940170170 ) ) ;
#394 = AXIS2_PLACEMENT_3D ( 'NONE', #172, #13, #49 ) ;
#395 = VERTEX_POINT ( 'NONE', #171 ) ;
#396 = AXIS2_PLACEMENT_3D ( 'NONE', #18, #104, #142 ) ;
#397 = ADVANCED_FACE ( 'NONE', ( #85 ), #331, .T. ) ;
#398 = CARTESIAN_POINT ( 'NONE',  ( 0.000000000000000000, 0.000000000000000000, 26.00000000000000000 ) ) ;
#399 = PERSON_AND_ORGANIZATION ( #97, #123 ) ;
#400 = APPLICATION_PROTOCOL_DEFINITION ( 'international standard', 'config_control_design', 1994, #378 ) ;
#401 = EDGE_CURVE ( 'NONE', #324, #281, #80, .T. ) ;
#402 = DIRECTION ( 'NONE',  ( -0.3420201488746776319, 0.000000000000000000, -0.9396926187662342222 ) ) ;
#403 = DIRECTION ( 'NONE',  ( 1.000000000000000000, 0.000000000000000000, 0.000000000000000000 ) ) ;
#404 = PERSON_AND_ORGANIZATION_ROLE ( 'classification_officer' ) ;
#405 = VERTEX_POINT ( 'NONE', #145 ) ;
#406 = CIRCLE ( 'NONE', #16, 8.000000000000000000 ) ;
#407 = ORIENTED_EDGE ( 'NONE', *, *, #279, .F. ) ;
ENDSEC;
END-ISO-10303-21;
