ISO-10303-21;
HEADER;
FILE_DESCRIPTION (( 'STEP AP203' ),
    '1' );
FILE_NAME ('¼Ð¿Ú.STEP',
    '2025-03-29T06:17:00',
    ( 'Î¢ÈíÓÃ»§' ),
    ( 'Î¢ÈíÖÐ¹ú' ),
    'SwSTEP 2.0',
    'SolidWorks 2016',
    '' );
FILE_SCHEMA (( 'CONFIG_CONTROL_DESIGN' ));
ENDSEC;

DATA;
#1 = LINE ( 'NONE', #100, #388 ) ;
#2 = ORIENTED_EDGE ( 'NONE', *, *, #70, .F. ) ;
#3 = EDGE_LOOP ( 'NONE', ( #63, #72, #87, #334 ) ) ;
#4 = APPROVAL_ROLE ( '' ) ;
#5 = CARTESIAN_POINT ( 'NONE',  ( 0.0000000000000000000, 0.0000000000000000000, 0.0000000000000000000 ) ) ;
#6 = CIRCLE ( 'NONE', #347, 13.00000000000000200 ) ;
#7 = ORIENTED_EDGE ( 'NONE', *, *, #103, .T. ) ;
#8 = CALENDAR_DATE ( 2025, 29, 3 ) ;
#9 = EDGE_LOOP ( 'NONE', ( #377, #114 ) ) ;
#10 = DIRECTION ( 'NONE',  ( 0.0000000000000000000, 0.0000000000000000000, -1.000000000000000000 ) ) ;
#11 = AXIS2_PLACEMENT_3D ( 'NONE', #81, #267, #369 ) ;
#12 = CALENDAR_DATE ( 2025, 29, 3 ) ;
#13 = CIRCLE ( 'NONE', #409, 79.50000000000000000 ) ;
#14 = VECTOR ( 'NONE', #164, 1000.000000000000000 ) ;
#15 = EDGE_CURVE ( 'NONE', #331, #281, #265, .T. ) ;
#16 = CC_DESIGN_APPROVAL ( #54, ( #345 ) ) ;
#17 = PLANE ( 'NONE',  #126 ) ;
#18 = DIRECTION ( 'NONE',  ( 1.000000000000000000, 0.0000000000000000000, 0.0000000000000000000 ) ) ;
#19 = AXIS2_PLACEMENT_3D ( 'NONE', #135, #39, #157 ) ;
#20 = CARTESIAN_POINT ( 'NONE',  ( 0.0000000000000000000, 0.0000000000000000000, 29.99999999999995700 ) ) ;
#21 = VERTEX_POINT ( 'NONE', #333 ) ;
#22 = CARTESIAN_POINT ( 'NONE',  ( 5.250000000000000000, 0.0000000000000000000, 25.49999999999995700 ) ) ;
#23 = CC_DESIGN_PERSON_AND_ORGANIZATION_ASSIGNMENT ( #405, #226, ( #140 ) ) ;
#24 = ORIENTED_EDGE ( 'NONE', *, *, #269, .F. ) ;
#25 = CC_DESIGN_SECURITY_CLASSIFICATION ( #345, ( #270 ) ) ;
#26 = CARTESIAN_POINT ( 'NONE',  ( 0.0000000000000000000, 0.0000000000000000000, 0.0000000000000000000 ) ) ;
#27 = DIRECTION ( 'NONE',  ( 1.000000000000000000, 0.0000000000000000000, 0.0000000000000000000 ) ) ;
#28 = CARTESIAN_POINT ( 'NONE',  ( 0.0000000000000000000, 0.0000000000000000000, 0.0000000000000000000 ) ) ;
#29 = ORIENTED_EDGE ( 'NONE', *, *, #206, .T. ) ;
#30 = CARTESIAN_POINT ( 'NONE',  ( 0.0000000000000000000, 0.0000000000000000000, 34.79999999999994000 ) ) ;
#31 = CARTESIAN_POINT ( 'NONE',  ( -79.50000000000000000, 0.0000000000000000000, 29.99999999999995700 ) ) ;
#32 = PERSON_AND_ORGANIZATION ( #134, #304 ) ;
#33 = CARTESIAN_POINT ( 'NONE',  ( 13.00000000000000200, 1.592040838891556300E-015, 25.49999999999995700 ) ) ;
#34 = AXIS2_PLACEMENT_3D ( 'NONE', #310, #305, #182 ) ;
#35 = COORDINATED_UNIVERSAL_TIME_OFFSET ( 8, 0, .AHEAD. ) ;
#36 = SECURITY_CLASSIFICATION_LEVEL ( 'unclassified' ) ;
#37 = LINE ( 'NONE', #65, #343 ) ;
#38 = EDGE_LOOP ( 'NONE', ( #124, #142 ) ) ;
#39 = DIRECTION ( 'NONE',  ( -0.0000000000000000000, 0.0000000000000000000, 1.000000000000000000 ) ) ;
#40 = LINE ( 'NONE', #280, #361 ) ;
#41 = EDGE_CURVE ( 'NONE', #201, #21, #230, .T. ) ;
#42 = COORDINATED_UNIVERSAL_TIME_OFFSET ( 8, 0, .AHEAD. ) ;
#43 = CARTESIAN_POINT ( 'NONE',  ( -79.50000000000000000, 0.0000000000000000000, 1.848892746611746400E-029 ) ) ;
#44 = DIRECTION ( 'NONE',  ( 0.0000000000000000000, 0.0000000000000000000, -1.000000000000000000 ) ) ;
#45 = EDGE_LOOP ( 'NONE', ( #97, #275, #362, #389 ) ) ;
#46 = DIRECTION ( 'NONE',  ( 0.0000000000000000000, 0.0000000000000000000, -1.000000000000000000 ) ) ;
#47 = APPROVAL_PERSON_ORGANIZATION ( #328, #395, #4 ) ;
#48 = EDGE_LOOP ( 'NONE', ( #166, #123, #71, #318 ) ) ;
#49 = CYLINDRICAL_SURFACE ( 'NONE', #366, 13.00000000000000200 ) ;
#50 = CARTESIAN_POINT ( 'NONE',  ( 0.0000000000000000000, 0.0000000000000000000, 25.49999999999995700 ) ) ;
#51 = FACE_OUTER_BOUND ( 'NONE', #113, .T. ) ;
#52 = CARTESIAN_POINT ( 'NONE',  ( 0.0000000000000000000, 0.0000000000000000000, 34.79999999999994000 ) ) ;
#53 = EDGE_LOOP ( 'NONE', ( #407, #178 ) ) ;
#54 = APPROVAL ( #125, 'Î´Ö¸¶¨' ) ;
#55 = ORIENTED_EDGE ( 'NONE', *, *, #358, .F. ) ;
#56 = ADVANCED_FACE ( 'NONE', ( #185 ), #314, .T. ) ;
#57 = CARTESIAN_POINT ( 'NONE',  ( 0.0000000000000000000, 0.0000000000000000000, 34.79999999999994000 ) ) ;
#58 = DIRECTION ( 'NONE',  ( 1.000000000000000000, 0.0000000000000000000, 0.0000000000000000000 ) ) ;
#59 = DIRECTION ( 'NONE',  ( 1.000000000000000000, 0.0000000000000000000, 0.0000000000000000000 ) ) ;
#60 = CALENDAR_DATE ( 2025, 29, 3 ) ;
#61 = EDGE_CURVE ( 'NONE', #367, #207, #213, .T. ) ;
#62 = APPROVAL ( #192, 'Î´Ö¸¶¨' ) ;
#63 = ORIENTED_EDGE ( 'NONE', *, *, #344, .F. ) ;
#64 = DIRECTION ( 'NONE',  ( 0.0000000000000000000, 0.0000000000000000000, -1.000000000000000000 ) ) ;
#65 = CARTESIAN_POINT ( 'NONE',  ( 5.250000000000000000, 0.0000000000000000000, 0.0000000000000000000 ) ) ;
#66 = AXIS2_PLACEMENT_3D ( 'NONE', #26, #342, #155 ) ;
#67 = VERTEX_POINT ( 'NONE', #260 ) ;
#68 = DIRECTION ( 'NONE',  ( 1.000000000000000000, 0.0000000000000000000, 0.0000000000000000000 ) ) ;
#69 = DIRECTION ( 'NONE',  ( -0.0000000000000000000, 0.0000000000000000000, 1.000000000000000000 ) ) ;
#70 = EDGE_CURVE ( 'NONE', #207, #367, #378, .T. ) ;
#71 = ORIENTED_EDGE ( 'NONE', *, *, #363, .T. ) ;
#72 = ORIENTED_EDGE ( 'NONE', *, *, #252, .F. ) ;
#73 = DIRECTION ( 'NONE',  ( -0.0000000000000000000, -0.0000000000000000000, 1.000000000000000000 ) ) ;
#74 =( GEOMETRIC_REPRESENTATION_CONTEXT ( 3 ) GLOBAL_UNCERTAINTY_ASSIGNED_CONTEXT ( ( #241 ) ) GLOBAL_UNIT_ASSIGNED_CONTEXT ( ( #256, #96, #161 ) ) REPRESENTATION_CONTEXT ( 'NONE', 'WORKASPACE' ) );
#75 = DIRECTION ( 'NONE',  ( -0.0000000000000000000, 0.0000000000000000000, 1.000000000000000000 ) ) ;
#76 = ADVANCED_FACE ( 'NONE', ( #258, #139 ), #297, .T. ) ;
#77 = ADVANCED_FACE ( 'NONE', ( #401 ), #167, .F. ) ;
#78 = VERTEX_POINT ( 'NONE', #43 ) ;
#79 = ORIENTED_EDGE ( 'NONE', *, *, #15, .T. ) ;
#80 = ADVANCED_BREP_SHAPE_REPRESENTATION ( '¼Ð¿Ú', ( #375, #106 ), #74 ) ;
#81 = CARTESIAN_POINT ( 'NONE',  ( 0.0000000000000000000, 0.0000000000000000000, 0.0000000000000000000 ) ) ;
#82 = AXIS2_PLACEMENT_3D ( 'NONE', #30, #315, #58 ) ;
#83 = LOCAL_TIME ( 14, 17, 0.0000000000000000000, #130 ) ;
#84 = DATE_AND_TIME ( #8, #95 ) ;
#85 = CIRCLE ( 'NONE', #307, 13.00000000000000200 ) ;
#86 = DIRECTION ( 'NONE',  ( -0.0000000000000000000, 0.0000000000000000000, 1.000000000000000000 ) ) ;
#87 = ORIENTED_EDGE ( 'NONE', *, *, #232, .T. ) ;
#88 = DIRECTION ( 'NONE',  ( 0.0000000000000000000, 0.0000000000000000000, -1.000000000000000000 ) ) ;
#89 = ORIENTED_EDGE ( 'NONE', *, *, #294, .F. ) ;
#90 = DIRECTION ( 'NONE',  ( -0.0000000000000000000, 0.0000000000000000000, 1.000000000000000000 ) ) ;
#91 = DIRECTION ( 'NONE',  ( 0.0000000000000000000, 0.0000000000000000000, -1.000000000000000000 ) ) ;
#92 = ORIENTED_EDGE ( 'NONE', *, *, #151, .F. ) ;
#93 = CARTESIAN_POINT ( 'NONE',  ( 0.0000000000000000000, 0.0000000000000000000, 25.49999999999995700 ) ) ;
#94 = CARTESIAN_POINT ( 'NONE',  ( 0.0000000000000000000, 0.0000000000000000000, 29.99999999999995700 ) ) ;
#95 = LOCAL_TIME ( 14, 17, 0.0000000000000000000, #42 ) ;
#96 =( NAMED_UNIT ( * ) PLANE_ANGLE_UNIT ( ) SI_UNIT ( $, .RADIAN. ) );
#97 = ORIENTED_EDGE ( 'NONE', *, *, #283, .F. ) ;
#98 = APPLICATION_PROTOCOL_DEFINITION ( 'international standard', 'config_control_design', 1994, #349 ) ;
#99 = LINE ( 'NONE', #149, #158 ) ;
#100 = CARTESIAN_POINT ( 'NONE',  ( -15.00000000000000000, 0.0000000000000000000, 34.79999999999994000 ) ) ;
#101 = AXIS2_PLACEMENT_3D ( 'NONE', #364, #180, #18 ) ;
#102 = CYLINDRICAL_SURFACE ( 'NONE', #234, 15.00000000000000000 ) ;
#103 = EDGE_CURVE ( 'NONE', #197, #67, #173, .T. ) ;
#104 = APPROVAL_DATE_TIME ( #385, #62 ) ;
#105 = PERSON_AND_ORGANIZATION ( #134, #304 ) ;
#106 = AXIS2_PLACEMENT_3D ( 'NONE', #5, #325, #68 ) ;
#107 = ORIENTED_EDGE ( 'NONE', *, *, #194, .T. ) ;
#108 = DIRECTION ( 'NONE',  ( 1.000000000000000000, 0.0000000000000000000, 0.0000000000000000000 ) ) ;
#109 = CALENDAR_DATE ( 2025, 29, 3 ) ;
#110 = ADVANCED_FACE ( 'NONE', ( #332 ), #49, .F. ) ;
#111 = ADVANCED_FACE ( 'NONE', ( #393 ), #165, .T. ) ;
#112 = DIRECTION ( 'NONE',  ( 1.000000000000000000, 0.0000000000000000000, 0.0000000000000000000 ) ) ;
#113 = EDGE_LOOP ( 'NONE', ( #162, #159, #289, #222 ) ) ;
#114 = ORIENTED_EDGE ( 'NONE', *, *, #294, .T. ) ;
#115 = DIRECTION ( 'NONE',  ( 1.000000000000000000, 0.0000000000000000000, 0.0000000000000000000 ) ) ;
#116 = PERSON_AND_ORGANIZATION ( #134, #304 ) ;
#117 = VERTEX_POINT ( 'NONE', #302 ) ;
#118 = CYLINDRICAL_SURFACE ( 'NONE', #296, 5.250000000000000000 ) ;
#119 = CARTESIAN_POINT ( 'NONE',  ( 0.0000000000000000000, 0.0000000000000000000, 34.79999999999994000 ) ) ;
#120 = CARTESIAN_POINT ( 'NONE',  ( 79.50000000000000000, 9.735942053221441100E-015, 29.99999999999995700 ) ) ;
#121 = EDGE_CURVE ( 'NONE', #78, #359, #133, .T. ) ;
#122 = DIRECTION ( 'NONE',  ( 1.000000000000000000, 0.0000000000000000000, -0.0000000000000000000 ) ) ;
#123 = ORIENTED_EDGE ( 'NONE', *, *, #269, .T. ) ;
#124 = ORIENTED_EDGE ( 'NONE', *, *, #206, .F. ) ;
#125 = APPROVAL_STATUS ( 'not_yet_approved' ) ;
#126 = AXIS2_PLACEMENT_3D ( 'NONE', #20, #145, #242 ) ;
#127 = PERSON_AND_ORGANIZATION_ROLE ( 'classification_officer' ) ;
#128 = EDGE_LOOP ( 'NONE', ( #146, #231 ) ) ;
#129 = DATE_AND_TIME ( #12, #313 ) ;
#130 = COORDINATED_UNIVERSAL_TIME_OFFSET ( 8, 0, .AHEAD. ) ;
#131 = DATE_TIME_ROLE ( 'creation_date' ) ;
#132 = APPLICATION_PROTOCOL_DEFINITION ( 'international standard', 'config_control_design', 1994, #189 ) ;
#133 = CIRCLE ( 'NONE', #273, 79.50000000000000000 ) ;
#134 = PERSON ( 'Î´Ö¸¶¨', 'Î´Ö¸¶¨', 'Î´Ö¸¶¨', ('Î´Ö¸¶¨'), ('Î´Ö¸¶¨'), ('Î´Ö¸¶¨') ) ;
#135 = CARTESIAN_POINT ( 'NONE',  ( 0.0000000000000000000, 0.0000000000000000000, 0.0000000000000000000 ) ) ;
#136 = EDGE_CURVE ( 'NONE', #21, #367, #99, .T. ) ;
#137 = FACE_OUTER_BOUND ( 'NONE', #225, .T. ) ;
#138 = CIRCLE ( 'NONE', #355, 79.50000000000000000 ) ;
#139 = FACE_BOUND ( 'NONE', #211, .T. ) ;
#140 = PRODUCT ( '¼Ð¿Ú', '¼Ð¿Ú', '', ( #257 ) ) ;
#141 = CARTESIAN_POINT ( 'NONE',  ( 15.00000000000000000, 1.836970198721026400E-015, 34.79999999999994000 ) ) ;
#142 = ORIENTED_EDGE ( 'NONE', *, *, #194, .F. ) ;
#143 = DIRECTION ( 'NONE',  ( -1.000000000000000000, 0.0000000000000000000, 0.0000000000000000000 ) ) ;
#144 = DIRECTION ( 'NONE',  ( -0.0000000000000000000, 0.0000000000000000000, 1.000000000000000000 ) ) ;
#145 = DIRECTION ( 'NONE',  ( 0.0000000000000000000, 0.0000000000000000000, 1.000000000000000000 ) ) ;
#146 = ORIENTED_EDGE ( 'NONE', *, *, #252, .T. ) ;
#147 = CARTESIAN_POINT ( 'NONE',  ( 0.0000000000000000000, 0.0000000000000000000, 29.99999999999995700 ) ) ;
#148 = AXIS2_PLACEMENT_3D ( 'NONE', #57, #184, #122 ) ;
#149 = CARTESIAN_POINT ( 'NONE',  ( -5.250000000000000000, 6.429395695523593300E-016, 0.0000000000000000000 ) ) ;
#150 = CARTESIAN_POINT ( 'NONE',  ( 13.00000000000000200, 1.592040838891556300E-015, 25.49999999999995700 ) ) ;
#151 = EDGE_CURVE ( 'NONE', #67, #197, #322, .T. ) ;
#152 = DIRECTION ( 'NONE',  ( -1.000000000000000000, 0.0000000000000000000, 0.0000000000000000000 ) ) ;
#153 = ORIENTED_EDGE ( 'NONE', *, *, #301, .T. ) ;
#154 = DIRECTION ( 'NONE',  ( -0.0000000000000000000, 0.0000000000000000000, 1.000000000000000000 ) ) ;
#155 = DIRECTION ( 'NONE',  ( 1.000000000000000000, 0.0000000000000000000, -0.0000000000000000000 ) ) ;
#156 = ORIENTED_EDGE ( 'NONE', *, *, #283, .T. ) ;
#157 = DIRECTION ( 'NONE',  ( 1.000000000000000000, 0.0000000000000000000, 0.0000000000000000000 ) ) ;
#158 = VECTOR ( 'NONE', #177, 1000.000000000000000 ) ;
#159 = ORIENTED_EDGE ( 'NONE', *, *, #41, .F. ) ;
#160 = PERSON_AND_ORGANIZATION_ROLE ( 'creator' ) ;
#161 =( NAMED_UNIT ( * ) SI_UNIT ( $, .STERADIAN. ) SOLID_ANGLE_UNIT ( ) );
#162 = ORIENTED_EDGE ( 'NONE', *, *, #136, .F. ) ;
#163 = APPROVAL_DATE_TIME ( #240, #54 ) ;
#164 = DIRECTION ( 'NONE',  ( 0.0000000000000000000, 0.0000000000000000000, -1.000000000000000000 ) ) ;
#165 = CYLINDRICAL_SURFACE ( 'NONE', #34, 79.50000000000000000 ) ;
#166 = ORIENTED_EDGE ( 'NONE', *, *, #301, .F. ) ;
#167 = CYLINDRICAL_SURFACE ( 'NONE', #254, 13.00000000000000200 ) ;
#168 = DIRECTION ( 'NONE',  ( -1.000000000000000000, 0.0000000000000000000, 0.0000000000000000000 ) ) ;
#169 = CARTESIAN_POINT ( 'NONE',  ( 0.0000000000000000000, 0.0000000000000000000, 29.99999999999995700 ) ) ;
#170 = CC_DESIGN_DATE_AND_TIME_ASSIGNMENT ( #352, #131, ( #279 ) ) ;
#171 = EDGE_CURVE ( 'NONE', #337, #331, #397, .T. ) ;
#172 = FACE_OUTER_BOUND ( 'NONE', #9, .T. ) ;
#173 = CIRCLE ( 'NONE', #11, 13.00000000000000200 ) ;
#174 = APPROVAL_PERSON_ORGANIZATION ( #293, #62, #380 ) ;
#175 = ADVANCED_FACE ( 'NONE', ( #303, #253 ), #17, .T. ) ;
#176 = PERSON_AND_ORGANIZATION ( #134, #304 ) ;
#177 = DIRECTION ( 'NONE',  ( -0.0000000000000000000, 0.0000000000000000000, 1.000000000000000000 ) ) ;
#178 = ORIENTED_EDGE ( 'NONE', *, *, #363, .F. ) ;
#179 = CC_DESIGN_APPROVAL ( #62, ( #270 ) ) ;
#180 = DIRECTION ( 'NONE',  ( -0.0000000000000000000, 0.0000000000000000000, 1.000000000000000000 ) ) ;
#181 = ADVANCED_FACE ( 'NONE', ( #195 ), #268, .T. ) ;
#182 = DIRECTION ( 'NONE',  ( -1.000000000000000000, 0.0000000000000000000, 0.0000000000000000000 ) ) ;
#183 = ADVANCED_FACE ( 'NONE', ( #51 ), #205, .F. ) ;
#184 = DIRECTION ( 'NONE',  ( 0.0000000000000000000, 0.0000000000000000000, 1.000000000000000000 ) ) ;
#185 = FACE_OUTER_BOUND ( 'NONE', #246, .T. ) ;
#186 = CARTESIAN_POINT ( 'NONE',  ( 15.00000000000000000, 1.836970198721026400E-015, 29.99999999999995700 ) ) ;
#187 = VECTOR ( 'NONE', #216, 1000.000000000000000 ) ;
#188 = APPROVAL_ROLE ( '' ) ;
#189 = APPLICATION_CONTEXT ( 'configuration controlled 3d designs of mechanical parts and assemblies' ) ;
#190 = AXIS2_PLACEMENT_3D ( 'NONE', #147, #86, #210 ) ;
#191 = DIRECTION ( 'NONE',  ( 0.0000000000000000000, 0.0000000000000000000, -1.000000000000000000 ) ) ;
#192 = APPROVAL_STATUS ( 'not_yet_approved' ) ;
#193 = ORIENTED_EDGE ( 'NONE', *, *, #15, .F. ) ;
#194 = EDGE_CURVE ( 'NONE', #281, #117, #353, .T. ) ;
#195 = FACE_OUTER_BOUND ( 'NONE', #309, .T. ) ;
#196 = ORIENTED_EDGE ( 'NONE', *, *, #61, .F. ) ;
#197 = VERTEX_POINT ( 'NONE', #368 ) ;
#198 = CC_DESIGN_APPROVAL ( #395, ( #279 ) ) ;
#199 = ORIENTED_EDGE ( 'NONE', *, *, #232, .F. ) ;
#200 = DIRECTION ( 'NONE',  ( 1.000000000000000000, 0.0000000000000000000, 0.0000000000000000000 ) ) ;
#201 = VERTEX_POINT ( 'NONE', #22 ) ;
#202 = CARTESIAN_POINT ( 'NONE',  ( 0.0000000000000000000, 0.0000000000000000000, 0.0000000000000000000 ) ) ;
#203 = SHAPE_DEFINITION_REPRESENTATION ( #259, #80 ) ;
#204 = CARTESIAN_POINT ( 'NONE',  ( 5.250000000000000000, 0.0000000000000000000, 34.79999999999994000 ) ) ;
#205 = CYLINDRICAL_SURFACE ( 'NONE', #101, 5.250000000000000000 ) ;
#206 = EDGE_CURVE ( 'NONE', #117, #281, #365, .T. ) ;
#207 = VERTEX_POINT ( 'NONE', #204 ) ;
#208 = DIRECTION ( 'NONE',  ( -1.000000000000000000, 0.0000000000000000000, 0.0000000000000000000 ) ) ;
#209 = AXIS2_PLACEMENT_3D ( 'NONE', #94, #90, #59 ) ;
#210 = DIRECTION ( 'NONE',  ( 1.000000000000000000, 0.0000000000000000000, 0.0000000000000000000 ) ) ;
#211 = EDGE_LOOP ( 'NONE', ( #287, #156 ) ) ;
#212 = PLANE ( 'NONE',  #148 ) ;
#213 = CIRCLE ( 'NONE', #402, 5.250000000000000000 ) ;
#214 = VERTEX_POINT ( 'NONE', #390 ) ;
#215 = DIRECTION ( 'NONE',  ( -0.0000000000000000000, 0.0000000000000000000, 1.000000000000000000 ) ) ;
#216 = DIRECTION ( 'NONE',  ( 0.0000000000000000000, 0.0000000000000000000, -1.000000000000000000 ) ) ;
#217 = APPROVAL_PERSON_ORGANIZATION ( #32, #54, #188 ) ;
#218 = DIRECTION ( 'NONE',  ( -1.000000000000000000, 0.0000000000000000000, 0.0000000000000000000 ) ) ;
#219 = CIRCLE ( 'NONE', #82, 15.00000000000000000 ) ;
#220 = EDGE_LOOP ( 'NONE', ( #2, #196 ) ) ;
#221 = ORIENTED_EDGE ( 'NONE', *, *, #171, .F. ) ;
#222 = ORIENTED_EDGE ( 'NONE', *, *, #70, .T. ) ;
#223 = CC_DESIGN_DATE_AND_TIME_ASSIGNMENT ( #84, #228, ( #345 ) ) ;
#224 = VECTOR ( 'NONE', #191, 1000.000000000000000 ) ;
#225 = EDGE_LOOP ( 'NONE', ( #89, #79, #107, #55 ) ) ;
#226 = PERSON_AND_ORGANIZATION_ROLE ( 'design_owner' ) ;
#227 = LOCAL_TIME ( 14, 17, 0.0000000000000000000, #308 ) ;
#228 = DATE_TIME_ROLE ( 'classification_date' ) ;
#229 = FACE_OUTER_BOUND ( 'NONE', #45, .T. ) ;
#230 = CIRCLE ( 'NONE', #382, 5.250000000000000000 ) ;
#231 = ORIENTED_EDGE ( 'NONE', *, *, #329, .T. ) ;
#232 = EDGE_CURVE ( 'NONE', #214, #67, #285, .T. ) ;
#233 = DIRECTION ( 'NONE',  ( -1.000000000000000000, 0.0000000000000000000, 0.0000000000000000000 ) ) ;
#234 = AXIS2_PLACEMENT_3D ( 'NONE', #119, #91, #346 ) ;
#235 = CARTESIAN_POINT ( 'NONE',  ( 0.0000000000000000000, 0.0000000000000000000, 25.49999999999995700 ) ) ;
#236 = CARTESIAN_POINT ( 'NONE',  ( 0.0000000000000000000, 0.0000000000000000000, 34.79999999999994000 ) ) ;
#237 = DIRECTION ( 'NONE',  ( -0.0000000000000000000, 0.0000000000000000000, 1.000000000000000000 ) ) ;
#238 = VECTOR ( 'NONE', #374, 1000.000000000000000 ) ;
#239 = ORIENTED_EDGE ( 'NONE', *, *, #344, .T. ) ;
#240 = DATE_AND_TIME ( #109, #227 ) ;
#241 = UNCERTAINTY_MEASURE_WITH_UNIT (LENGTH_MEASURE( 1.000000000000000100E-005 ), #256, 'distance_accuracy_value', 'NONE');
#242 = DIRECTION ( 'NONE',  ( 1.000000000000000000, 0.0000000000000000000, -0.0000000000000000000 ) ) ;
#243 = CIRCLE ( 'NONE', #19, 79.50000000000000000 ) ;
#244 = CC_DESIGN_PERSON_AND_ORGANIZATION_ASSIGNMENT ( #176, #127, ( #345 ) ) ;
#245 = ADVANCED_FACE ( 'NONE', ( #137 ), #102, .T. ) ;
#246 = EDGE_LOOP ( 'NONE', ( #24, #255, #354, #379 ) ) ;
#247 = CARTESIAN_POINT ( 'NONE',  ( -15.00000000000000000, 0.0000000000000000000, 34.79999999999994000 ) ) ;
#248 = AXIS2_PLACEMENT_3D ( 'NONE', #360, #144, #108 ) ;
#249 = VERTEX_POINT ( 'NONE', #31 ) ;
#250 = DIRECTION ( 'NONE',  ( 1.000000000000000000, 0.0000000000000000000, 0.0000000000000000000 ) ) ;
#251 = CARTESIAN_POINT ( 'NONE',  ( 0.0000000000000000000, 0.0000000000000000000, 29.99999999999995700 ) ) ;
#252 = EDGE_CURVE ( 'NONE', #214, #400, #6, .T. ) ;
#253 = FACE_OUTER_BOUND ( 'NONE', #292, .T. ) ;
#254 = AXIS2_PLACEMENT_3D ( 'NONE', #300, #44, #168 ) ;
#255 = ORIENTED_EDGE ( 'NONE', *, *, #324, .F. ) ;
#256 =( LENGTH_UNIT ( ) NAMED_UNIT ( * ) SI_UNIT ( .MILLI., .METRE. ) );
#257 = MECHANICAL_CONTEXT ( 'NONE', #189, 'mechanical' ) ;
#258 = FACE_OUTER_BOUND ( 'NONE', #128, .T. ) ;
#259 = PRODUCT_DEFINITION_SHAPE ( 'NONE', 'NONE',  #279 ) ;
#260 = CARTESIAN_POINT ( 'NONE',  ( -13.00000000000000200, 0.0000000000000000000, 0.0000000000000000000 ) ) ;
#261 = EDGE_LOOP ( 'NONE', ( #282, #239, #7, #199 ) ) ;
#262 = CC_DESIGN_PERSON_AND_ORGANIZATION_ASSIGNMENT ( #277, #160, ( #270 ) ) ;
#263 = DIRECTION ( 'NONE',  ( -1.000000000000000000, 0.0000000000000000000, 0.0000000000000000000 ) ) ;
#264 = DIRECTION ( 'NONE',  ( -1.000000000000000000, 0.0000000000000000000, 0.0000000000000000000 ) ) ;
#265 = LINE ( 'NONE', #141, #14 ) ;
#266 = ADVANCED_FACE ( 'NONE', ( #336, #172 ), #212, .T. ) ;
#267 = DIRECTION ( 'NONE',  ( 0.0000000000000000000, 0.0000000000000000000, -1.000000000000000000 ) ) ;
#268 = CYLINDRICAL_SURFACE ( 'NONE', #323, 15.00000000000000000 ) ;
#269 = EDGE_CURVE ( 'NONE', #348, #359, #330, .T. ) ;
#270 = PRODUCT_DEFINITION_FORMATION_WITH_SPECIFIED_SOURCE ( 'ÈÎºÎ', '', #140, .NOT_KNOWN. ) ;
#271 = CARTESIAN_POINT ( 'NONE',  ( -13.00000000000000200, 0.0000000000000000000, 25.49999999999995700 ) ) ;
#272 = EDGE_LOOP ( 'NONE', ( #92, #341 ) ) ;
#273 = AXIS2_PLACEMENT_3D ( 'NONE', #311, #237, #112 ) ;
#274 = ADVANCED_FACE ( 'NONE', ( #229 ), #118, .F. ) ;
#275 = ORIENTED_EDGE ( 'NONE', *, *, #136, .T. ) ;
#276 = DIRECTION ( 'NONE',  ( 0.0000000000000000000, 0.0000000000000000000, -1.000000000000000000 ) ) ;
#277 = PERSON_AND_ORGANIZATION ( #134, #304 ) ;
#278 = ADVANCED_FACE ( 'NONE', ( #406, #391 ), #408, .F. ) ;
#279 = PRODUCT_DEFINITION ( 'Î´Öª', '', #270, #381 ) ;
#280 = CARTESIAN_POINT ( 'NONE',  ( -79.50000000000000000, 0.0000000000000000000, 29.99999999999995700 ) ) ;
#281 = VERTEX_POINT ( 'NONE', #186 ) ;
#282 = ORIENTED_EDGE ( 'NONE', *, *, #329, .F. ) ;
#283 = EDGE_CURVE ( 'NONE', #21, #201, #306, .T. ) ;
#284 = CARTESIAN_POINT ( 'NONE',  ( 15.00000000000000000, 1.836970198721026400E-015, 34.79999999999994000 ) ) ;
#285 = LINE ( 'NONE', #271, #187 ) ;
#286 = DIRECTION ( 'NONE',  ( 1.000000000000000000, 0.0000000000000000000, 0.0000000000000000000 ) ) ;
#287 = ORIENTED_EDGE ( 'NONE', *, *, #41, .T. ) ;
#288 = CARTESIAN_POINT ( 'NONE',  ( -5.250000000000000000, 6.429395695523593300E-016, 34.79999999999994000 ) ) ;
#289 = ORIENTED_EDGE ( 'NONE', *, *, #384, .T. ) ;
#290 = PERSON_AND_ORGANIZATION_ROLE ( 'creator' ) ;
#291 = CARTESIAN_POINT ( 'NONE',  ( 79.50000000000000000, 9.735942053221441100E-015, 1.848892746611746400E-029 ) ) ;
#292 = EDGE_LOOP ( 'NONE', ( #392, #153 ) ) ;
#293 = PERSON_AND_ORGANIZATION ( #134, #304 ) ;
#294 = EDGE_CURVE ( 'NONE', #331, #337, #219, .T. ) ;
#295 = PRODUCT_RELATED_PRODUCT_CATEGORY ( 'detail', '', ( #140 ) ) ;
#296 = AXIS2_PLACEMENT_3D ( 'NONE', #28, #154, #27 ) ;
#297 = PLANE ( 'NONE',  #298 ) ;
#298 = AXIS2_PLACEMENT_3D ( 'NONE', #50, #10, #264 ) ;
#299 = CC_DESIGN_PERSON_AND_ORGANIZATION_ASSIGNMENT ( #116, #290, ( #279 ) ) ;
#300 = CARTESIAN_POINT ( 'NONE',  ( 0.0000000000000000000, 0.0000000000000000000, 25.49999999999995700 ) ) ;
#301 = EDGE_CURVE ( 'NONE', #348, #249, #138, .T. ) ;
#302 = CARTESIAN_POINT ( 'NONE',  ( -15.00000000000000000, 0.0000000000000000000, 29.99999999999995700 ) ) ;
#303 = FACE_BOUND ( 'NONE', #38, .T. ) ;
#304 = ORGANIZATION ( 'Î´Ö¸¶¨', 'Î´Ö¸¶¨', '' ) ;
#305 = DIRECTION ( 'NONE',  ( 0.0000000000000000000, 0.0000000000000000000, -1.000000000000000000 ) ) ;
#306 = CIRCLE ( 'NONE', #340, 5.250000000000000000 ) ;
#307 = AXIS2_PLACEMENT_3D ( 'NONE', #93, #317, #383 ) ;
#308 = COORDINATED_UNIVERSAL_TIME_OFFSET ( 8, 0, .AHEAD. ) ;
#309 = EDGE_LOOP ( 'NONE', ( #193, #221, #372, #29 ) ) ;
#310 = CARTESIAN_POINT ( 'NONE',  ( 0.0000000000000000000, 0.0000000000000000000, 29.99999999999995700 ) ) ;
#311 = CARTESIAN_POINT ( 'NONE',  ( 0.0000000000000000000, 0.0000000000000000000, 0.0000000000000000000 ) ) ;
#312 = APPROVAL_DATE_TIME ( #129, #395 ) ;
#313 = LOCAL_TIME ( 14, 17, 0.0000000000000000000, #387 ) ;
#314 = CYLINDRICAL_SURFACE ( 'NONE', #351, 79.50000000000000000 ) ;
#315 = DIRECTION ( 'NONE',  ( -0.0000000000000000000, 0.0000000000000000000, 1.000000000000000000 ) ) ;
#316 = CARTESIAN_POINT ( 'NONE',  ( 0.0000000000000000000, 0.0000000000000000000, 25.49999999999995700 ) ) ;
#317 = DIRECTION ( 'NONE',  ( 0.0000000000000000000, 0.0000000000000000000, -1.000000000000000000 ) ) ;
#318 = ORIENTED_EDGE ( 'NONE', *, *, #319, .F. ) ;
#319 = EDGE_CURVE ( 'NONE', #249, #78, #40, .T. ) ;
#320 = CC_DESIGN_PERSON_AND_ORGANIZATION_ASSIGNMENT ( #105, #321, ( #270 ) ) ;
#321 = PERSON_AND_ORGANIZATION_ROLE ( 'design_supplier' ) ;
#322 = CIRCLE ( 'NONE', #399, 13.00000000000000200 ) ;
#323 = AXIS2_PLACEMENT_3D ( 'NONE', #394, #88, #208 ) ;
#324 = EDGE_CURVE ( 'NONE', #249, #348, #13, .T. ) ;
#325 = DIRECTION ( 'NONE',  ( 0.0000000000000000000, 0.0000000000000000000, 1.000000000000000000 ) ) ;
#326 = DIRECTION ( 'NONE',  ( 0.0000000000000000000, 0.0000000000000000000, -1.000000000000000000 ) ) ;
#327 = LOCAL_TIME ( 14, 17, 0.0000000000000000000, #35 ) ;
#328 = PERSON_AND_ORGANIZATION ( #134, #304 ) ;
#329 = EDGE_CURVE ( 'NONE', #400, #214, #85, .T. ) ;
#330 = LINE ( 'NONE', #371, #238 ) ;
#331 = VERTEX_POINT ( 'NONE', #284 ) ;
#332 = FACE_OUTER_BOUND ( 'NONE', #3, .T. ) ;
#333 = CARTESIAN_POINT ( 'NONE',  ( -5.250000000000000000, 6.429395695523593300E-016, 25.49999999999995700 ) ) ;
#334 = ORIENTED_EDGE ( 'NONE', *, *, #151, .T. ) ;
#335 = CARTESIAN_POINT ( 'NONE',  ( 0.0000000000000000000, 0.0000000000000000000, 25.49999999999995700 ) ) ;
#336 = FACE_BOUND ( 'NONE', #220, .T. ) ;
#337 = VERTEX_POINT ( 'NONE', #247 ) ;
#338 = DIRECTION ( 'NONE',  ( -1.000000000000000000, 0.0000000000000000000, 0.0000000000000000000 ) ) ;
#339 = CLOSED_SHELL ( 'NONE', ( #77, #245, #111, #274, #183, #56, #175, #278, #181, #266, #76, #110 ) ) ;
#340 = AXIS2_PLACEMENT_3D ( 'NONE', #316, #376, #218 ) ;
#341 = ORIENTED_EDGE ( 'NONE', *, *, #103, .F. ) ;
#342 = DIRECTION ( 'NONE',  ( 0.0000000000000000000, 0.0000000000000000000, 1.000000000000000000 ) ) ;
#343 = VECTOR ( 'NONE', #69, 1000.000000000000000 ) ;
#344 = EDGE_CURVE ( 'NONE', #400, #197, #370, .T. ) ;
#345 = SECURITY_CLASSIFICATION ( '', '', #36 ) ;
#346 = DIRECTION ( 'NONE',  ( -1.000000000000000000, 0.0000000000000000000, 0.0000000000000000000 ) ) ;
#347 = AXIS2_PLACEMENT_3D ( 'NONE', #403, #64, #152 ) ;
#348 = VERTEX_POINT ( 'NONE', #120 ) ;
#349 = APPLICATION_CONTEXT ( 'configuration controlled 3d designs of mechanical parts and assemblies' ) ;
#350 = APPROVAL_STATUS ( 'not_yet_approved' ) ;
#351 = AXIS2_PLACEMENT_3D ( 'NONE', #169, #356, #233 ) ;
#352 = DATE_AND_TIME ( #60, #327 ) ;
#353 = CIRCLE ( 'NONE', #190, 15.00000000000000000 ) ;
#354 = ORIENTED_EDGE ( 'NONE', *, *, #319, .T. ) ;
#355 = AXIS2_PLACEMENT_3D ( 'NONE', #251, #404, #286 ) ;
#356 = DIRECTION ( 'NONE',  ( 0.0000000000000000000, 0.0000000000000000000, -1.000000000000000000 ) ) ;
#357 = CALENDAR_DATE ( 2025, 29, 3 ) ;
#358 = EDGE_CURVE ( 'NONE', #337, #117, #1, .T. ) ;
#359 = VERTEX_POINT ( 'NONE', #291 ) ;
#360 = CARTESIAN_POINT ( 'NONE',  ( 0.0000000000000000000, 0.0000000000000000000, 34.79999999999994000 ) ) ;
#361 = VECTOR ( 'NONE', #276, 1000.000000000000000 ) ;
#362 = ORIENTED_EDGE ( 'NONE', *, *, #61, .T. ) ;
#363 = EDGE_CURVE ( 'NONE', #359, #78, #243, .T. ) ;
#364 = CARTESIAN_POINT ( 'NONE',  ( 0.0000000000000000000, 0.0000000000000000000, 0.0000000000000000000 ) ) ;
#365 = CIRCLE ( 'NONE', #209, 15.00000000000000000 ) ;
#366 = AXIS2_PLACEMENT_3D ( 'NONE', #235, #46, #263 ) ;
#367 = VERTEX_POINT ( 'NONE', #288 ) ;
#368 = CARTESIAN_POINT ( 'NONE',  ( 13.00000000000000200, 1.592040838891556300E-015, 6.162975822039154700E-030 ) ) ;
#369 = DIRECTION ( 'NONE',  ( -1.000000000000000000, 0.0000000000000000000, 0.0000000000000000000 ) ) ;
#370 = LINE ( 'NONE', #150, #224 ) ;
#371 = CARTESIAN_POINT ( 'NONE',  ( 79.50000000000000000, 9.735942053221441100E-015, 29.99999999999995700 ) ) ;
#372 = ORIENTED_EDGE ( 'NONE', *, *, #358, .T. ) ;
#373 = CARTESIAN_POINT ( 'NONE',  ( 0.0000000000000000000, 0.0000000000000000000, 29.99999999999995700 ) ) ;
#374 = DIRECTION ( 'NONE',  ( 0.0000000000000000000, 0.0000000000000000000, -1.000000000000000000 ) ) ;
#375 = MANIFOLD_SOLID_BREP ( 'ÇÐ³ý-À­Éì2', #339 ) ;
#376 = DIRECTION ( 'NONE',  ( -0.0000000000000000000, -0.0000000000000000000, 1.000000000000000000 ) ) ;
#377 = ORIENTED_EDGE ( 'NONE', *, *, #171, .T. ) ;
#378 = CIRCLE ( 'NONE', #248, 5.250000000000000000 ) ;
#379 = ORIENTED_EDGE ( 'NONE', *, *, #121, .T. ) ;
#380 = APPROVAL_ROLE ( '' ) ;
#381 = DESIGN_CONTEXT ( 'detailed design', #349, 'design' ) ;
#382 = AXIS2_PLACEMENT_3D ( 'NONE', #335, #73, #143 ) ;
#383 = DIRECTION ( 'NONE',  ( -1.000000000000000000, 0.0000000000000000000, 0.0000000000000000000 ) ) ;
#384 = EDGE_CURVE ( 'NONE', #201, #207, #37, .T. ) ;
#385 = DATE_AND_TIME ( #357, #83 ) ;
#386 = AXIS2_PLACEMENT_3D ( 'NONE', #52, #396, #115 ) ;
#387 = COORDINATED_UNIVERSAL_TIME_OFFSET ( 8, 0, .AHEAD. ) ;
#388 = VECTOR ( 'NONE', #326, 1000.000000000000000 ) ;
#389 = ORIENTED_EDGE ( 'NONE', *, *, #384, .F. ) ;
#390 = CARTESIAN_POINT ( 'NONE',  ( -13.00000000000000200, 0.0000000000000000000, 25.49999999999995700 ) ) ;
#391 = FACE_OUTER_BOUND ( 'NONE', #53, .T. ) ;
#392 = ORIENTED_EDGE ( 'NONE', *, *, #324, .T. ) ;
#393 = FACE_OUTER_BOUND ( 'NONE', #48, .T. ) ;
#394 = CARTESIAN_POINT ( 'NONE',  ( 0.0000000000000000000, 0.0000000000000000000, 34.79999999999994000 ) ) ;
#395 = APPROVAL ( #350, 'Î´Ö¸¶¨' ) ;
#396 = DIRECTION ( 'NONE',  ( -0.0000000000000000000, 0.0000000000000000000, 1.000000000000000000 ) ) ;
#397 = CIRCLE ( 'NONE', #386, 15.00000000000000000 ) ;
#398 = DIRECTION ( 'NONE',  ( 0.0000000000000000000, 0.0000000000000000000, -1.000000000000000000 ) ) ;
#399 = AXIS2_PLACEMENT_3D ( 'NONE', #202, #398, #338 ) ;
#400 = VERTEX_POINT ( 'NONE', #33 ) ;
#401 = FACE_OUTER_BOUND ( 'NONE', #261, .T. ) ;
#402 = AXIS2_PLACEMENT_3D ( 'NONE', #236, #75, #200 ) ;
#403 = CARTESIAN_POINT ( 'NONE',  ( 0.0000000000000000000, 0.0000000000000000000, 25.49999999999995700 ) ) ;
#404 = DIRECTION ( 'NONE',  ( -0.0000000000000000000, 0.0000000000000000000, 1.000000000000000000 ) ) ;
#405 = PERSON_AND_ORGANIZATION ( #134, #304 ) ;
#406 = FACE_BOUND ( 'NONE', #272, .T. ) ;
#407 = ORIENTED_EDGE ( 'NONE', *, *, #121, .F. ) ;
#408 = PLANE ( 'NONE',  #66 ) ;
#409 = AXIS2_PLACEMENT_3D ( 'NONE', #373, #215, #250 ) ;
ENDSEC;
END-ISO-10303-21;
