ISO-10303-21;
HEADER;
FILE_DESCRIPTION (( 'STEP AP203' ),
    '1' );
FILE_NAME ('bj720-22001.STEP',
    '2021-10-24T23:59:24',
    ( '' ),
    ( '' ),
    'SwSTEP 2.0',
    'SolidWorks 2020',
    '' );
FILE_SCHEMA (( 'CONFIG_CONTROL_DESIGN' ));
ENDSEC;

DATA;
#1 = DATE_TIME_ROLE ( 'creation_date' ) ;
#2 = APPROVAL ( #52, 'UNSPECIFIED' ) ;
#3 =( LENGTH_UNIT ( ) NAMED_UNIT ( * ) SI_UNIT ( .MILLI., .METRE. ) );
#4 = EDGE_LOOP ( 'NONE', ( #83, #293, #327, #234 ) ) ;
#5 = AXIS2_PLACEMENT_3D ( 'NONE', #78, #247, #302 ) ;
#6 = DATE_AND_TIME ( #238, #303 ) ;
#7 = CARTESIAN_POINT ( 'NONE',  ( 0.000000000000000000, 0.000000000000000000, 0.000000000000000000 ) ) ;
#8 = CARTESIAN_POINT ( 'NONE',  ( 0.000000000000000000, 0.000000000000000000, 50.00000000000000000 ) ) ;
#9 = COORDINATED_UNIVERSAL_TIME_OFFSET ( 9, 0, .AHEAD. ) ;
#10 = CARTESIAN_POINT ( 'NONE',  ( 0.000000000000000000, 0.000000000000000000, 50.00000000000000000 ) ) ;
#11 = DIRECTION ( 'NONE',  ( 0.000000000000000000, 0.000000000000000000, 1.000000000000000000 ) ) ;
#12 = EDGE_CURVE ( 'NONE', #189, #43, #251, .T. ) ;
#13 = PRODUCT_DEFINITION_FORMATION_WITH_SPECIFIED_SOURCE ( 'ANY', '', #233, .NOT_KNOWN. ) ;
#14 = ADVANCED_FACE ( 'NONE', ( #29 ), #166, .F. ) ;
#15 = ORIENTED_EDGE ( 'NONE', *, *, #235, .T. ) ;
#16 = EDGE_LOOP ( 'NONE', ( #152, #276, #37, #123 ) ) ;
#17 = DIRECTION ( 'NONE',  ( 1.000000000000000000, 0.000000000000000000, 0.000000000000000000 ) ) ;
#18 = AXIS2_PLACEMENT_3D ( 'NONE', #154, #305, #36 ) ;
#19 = EDGE_LOOP ( 'NONE', ( #118, #282 ) ) ;
#20 = DIRECTION ( 'NONE',  ( 0.000000000000000000, 0.000000000000000000, 1.000000000000000000 ) ) ;
#21 = ORIENTED_EDGE ( 'NONE', *, *, #90, .F. ) ;
#22 = EDGE_LOOP ( 'NONE', ( #289, #145, #248, #226 ) ) ;
#23 = DIRECTION ( 'NONE',  ( 0.4999999999999998890, 0.000000000000000000, 0.8660254037844387076 ) ) ;
#24 = ORIENTED_EDGE ( 'NONE', *, *, #144, .T. ) ;
#25 = DIRECTION ( 'NONE',  ( 1.000000000000000000, 0.000000000000000000, 0.000000000000000000 ) ) ;
#26 = ORIENTED_EDGE ( 'NONE', *, *, #235, .F. ) ;
#27 = EDGE_CURVE ( 'NONE', #349, #44, #137, .T. ) ;
#28 = PERSON_AND_ORGANIZATION ( #130, #31 ) ;
#29 = FACE_OUTER_BOUND ( 'NONE', #283, .T. ) ;
#30 = CONICAL_SURFACE ( 'NONE', #61, 11.00000000000000000, 0.5235987755982992597 ) ;
#31 = ORGANIZATION ( 'UNSPECIFIED', 'UNSPECIFIED', '' ) ;
#32 = DIRECTION ( 'NONE',  ( 0.000000000000000000, 0.000000000000000000, 1.000000000000000000 ) ) ;
#33 = CALENDAR_DATE ( 2021, 25, 10 ) ;
#34 = CC_DESIGN_PERSON_AND_ORGANIZATION_ASSIGNMENT ( #159, #73, ( #304 ) ) ;
#35 = DIRECTION ( 'NONE',  ( 1.000000000000000000, 0.000000000000000000, 0.000000000000000000 ) ) ;
#36 = DIRECTION ( 'NONE',  ( 1.000000000000000000, 0.000000000000000000, 0.000000000000000000 ) ) ;
#37 = ORIENTED_EDGE ( 'NONE', *, *, #167, .T. ) ;
#38 = CARTESIAN_POINT ( 'NONE',  ( 0.000000000000000000, 0.000000000000000000, 44.00000000000000000 ) ) ;
#39 = CARTESIAN_POINT ( 'NONE',  ( 11.00000000000000000, 0.000000000000000000, 3.000000000000000000 ) ) ;
#40 = APPROVAL_PERSON_ORGANIZATION ( #298, #323, #160 ) ;
#41 = CARTESIAN_POINT ( 'NONE',  ( 0.000000000000000000, 0.000000000000000000, 44.00000000000000000 ) ) ;
#42 = AXIS2_PLACEMENT_3D ( 'NONE', #138, #56, #170 ) ;
#43 = VERTEX_POINT ( 'NONE', #271 ) ;
#44 = VERTEX_POINT ( 'NONE', #108 ) ;
#45 = DIRECTION ( 'NONE',  ( 0.000000000000000000, 0.000000000000000000, -1.000000000000000000 ) ) ;
#46 = APPROVAL_STATUS ( 'not_yet_approved' ) ;
#47 = CLOSED_SHELL ( 'NONE', ( #162, #331, #222, #306, #66, #300, #205, #135, #121, #14, #187 ) ) ;
#48 = COORDINATED_UNIVERSAL_TIME_OFFSET ( 9, 0, .AHEAD. ) ;
#49 = FACE_OUTER_BOUND ( 'NONE', #22, .T. ) ;
#50 = PERSON_AND_ORGANIZATION_ROLE ( 'creator' ) ;
#51 = CC_DESIGN_APPROVAL ( #2, ( #111 ) ) ;
#52 = APPROVAL_STATUS ( 'not_yet_approved' ) ;
#53 = CC_DESIGN_PERSON_AND_ORGANIZATION_ASSIGNMENT ( #214, #50, ( #13 ) ) ;
#54 = CIRCLE ( 'NONE', #142, 11.00000000000000000 ) ;
#55 = EDGE_CURVE ( 'NONE', #232, #149, #72, .T. ) ;
#56 = DIRECTION ( 'NONE',  ( 0.000000000000000000, 0.000000000000000000, 1.000000000000000000 ) ) ;
#57 = CIRCLE ( 'NONE', #199, 11.00000000000000000 ) ;
#58 = FACE_OUTER_BOUND ( 'NONE', #206, .T. ) ;
#59 = EDGE_CURVE ( 'NONE', #180, #261, #225, .T. ) ;
#60 = CARTESIAN_POINT ( 'NONE',  ( 0.000000000000000000, 0.000000000000000000, 49.00000000000000000 ) ) ;
#61 = AXIS2_PLACEMENT_3D ( 'NONE', #175, #285, #342 ) ;
#62 = LOCAL_TIME ( 8, 59, 24.00000000000000000, #128 ) ;
#63 = FACE_OUTER_BOUND ( 'NONE', #346, .T. ) ;
#64 = EDGE_LOOP ( 'NONE', ( #174, #279 ) ) ;
#65 = FACE_OUTER_BOUND ( 'NONE', #16, .T. ) ;
#66 = ADVANCED_FACE ( 'NONE', ( #336 ), #169, .F. ) ;
#67 = DIRECTION ( 'NONE',  ( 0.000000000000000000, 0.000000000000000000, 1.000000000000000000 ) ) ;
#68 = DATE_AND_TIME ( #194, #316 ) ;
#69 = VECTOR ( 'NONE', #124, 1000.000000000000000 ) ;
#70 = PERSON_AND_ORGANIZATION_ROLE ( 'creator' ) ;
#71 = DATE_AND_TIME ( #136, #62 ) ;
#72 = LINE ( 'NONE', #192, #93 ) ;
#73 = PERSON_AND_ORGANIZATION_ROLE ( 'classification_officer' ) ;
#74 = DIRECTION ( 'NONE',  ( 1.000000000000000000, 0.000000000000000000, 0.000000000000000000 ) ) ;
#75 = VECTOR ( 'NONE', #343, 1000.000000000000000 ) ;
#76 = DIRECTION ( 'NONE',  ( 0.000000000000000000, 0.000000000000000000, 1.000000000000000000 ) ) ;
#77 = EDGE_CURVE ( 'NONE', #259, #140, #110, .T. ) ;
#78 = CARTESIAN_POINT ( 'NONE',  ( 0.000000000000000000, 0.000000000000000000, 49.00000000000000000 ) ) ;
#79 = AXIS2_PLACEMENT_3D ( 'NONE', #286, #11, #35 ) ;
#80 = VECTOR ( 'NONE', #23, 1000.000000000000000 ) ;
#81 = DIRECTION ( 'NONE',  ( 0.000000000000000000, 0.000000000000000000, 1.000000000000000000 ) ) ;
#82 = CARTESIAN_POINT ( 'NONE',  ( -11.00000000000000000, 0.000000000000000000, 44.00000000000000000 ) ) ;
#83 = ORIENTED_EDGE ( 'NONE', *, *, #291, .F. ) ;
#84 = LINE ( 'NONE', #314, #106 ) ;
#85 = AXIS2_PLACEMENT_3D ( 'NONE', #269, #217, #240 ) ;
#86 = VERTEX_POINT ( 'NONE', #153 ) ;
#87 = ORIENTED_EDGE ( 'NONE', *, *, #59, .T. ) ;
#88 = DIRECTION ( 'NONE',  ( 1.000000000000000000, 0.000000000000000000, 0.000000000000000000 ) ) ;
#89 = EDGE_LOOP ( 'NONE', ( #129, #24, #15, #21 ) ) ;
#90 = EDGE_CURVE ( 'NONE', #259, #232, #54, .T. ) ;
#91 = PLANE ( 'NONE',  #202 ) ;
#92 = PRODUCT_DEFINITION_SHAPE ( 'NONE', 'NONE',  #111 ) ;
#93 = VECTOR ( 'NONE', #32, 1000.000000000000000 ) ;
#94 = CONICAL_SURFACE ( 'NONE', #143, 11.00000000000000000, 0.5235987755982987046 ) ;
#95 = ORIENTED_EDGE ( 'NONE', *, *, #200, .T. ) ;
#96 = CARTESIAN_POINT ( 'NONE',  ( -2.500000000000000000, 3.061616997868383141E-16, 39.00000000000000000 ) ) ;
#97 = DIRECTION ( 'NONE',  ( -1.000000000000000000, 0.000000000000000000, 0.000000000000000000 ) ) ;
#98 = ORIENTED_EDGE ( 'NONE', *, *, #55, .T. ) ;
#99 = APPROVAL_DATE_TIME ( #274, #275 ) ;
#100 = CIRCLE ( 'NONE', #311, 8.113248654051860242 ) ;
#101 = CALENDAR_DATE ( 2021, 25, 10 ) ;
#102 = PERSON_AND_ORGANIZATION_ROLE ( 'design_owner' ) ;
#103 = CARTESIAN_POINT ( 'NONE',  ( 0.000000000000000000, 0.000000000000000000, 39.00000000000000000 ) ) ;
#104 = EDGE_CURVE ( 'NONE', #140, #149, #277, .T. ) ;
#105 = DIRECTION ( 'NONE',  ( 1.000000000000000000, 0.000000000000000000, 0.000000000000000000 ) ) ;
#106 = VECTOR ( 'NONE', #255, 1000.000000000000000 ) ;
#107 = CIRCLE ( 'NONE', #335, 11.00000000000000000 ) ;
#108 = CARTESIAN_POINT ( 'NONE',  ( -9.267949192431119698, 1.241053955189597787E-15, 0.000000000000000000 ) ) ;
#109 = CARTESIAN_POINT ( 'NONE',  ( 11.00000000000000000, 0.000000000000000000, 44.00000000000000000 ) ) ;
#110 = LINE ( 'NONE', #168, #69 ) ;
#111 = PRODUCT_DEFINITION ( 'UNKNOWN', '', #13, #171 ) ;
#112 = APPROVAL_PERSON_ORGANIZATION ( #212, #2, #164 ) ;
#113 = ORIENTED_EDGE ( 'NONE', *, *, #27, .T. ) ;
#114 = DIRECTION ( 'NONE',  ( 1.000000000000000000, 0.000000000000000000, 0.000000000000000000 ) ) ;
#115 = DIRECTION ( 'NONE',  ( 0.000000000000000000, 0.000000000000000000, 1.000000000000000000 ) ) ;
#116 = EDGE_CURVE ( 'NONE', #180, #43, #84, .T. ) ;
#117 = CARTESIAN_POINT ( 'NONE',  ( 2.500000000000000000, 0.000000000000000000, 39.00000000000000000 ) ) ;
#118 = ORIENTED_EDGE ( 'NONE', *, *, #141, .F. ) ;
#119 = CARTESIAN_POINT ( 'NONE',  ( -8.113248654051860242, 0.000000000000000000, 49.00000000000000000 ) ) ;
#120 = DIRECTION ( 'NONE',  ( 0.000000000000000000, 0.000000000000000000, 1.000000000000000000 ) ) ;
#121 = ADVANCED_FACE ( 'NONE', ( #203, #231 ), #91, .F. ) ;
#122 = CARTESIAN_POINT ( 'NONE',  ( 0.000000000000000000, 0.000000000000000000, 49.00000000000000000 ) ) ;
#123 = ORIENTED_EDGE ( 'NONE', *, *, #200, .F. ) ;
#124 = DIRECTION ( 'NONE',  ( 0.000000000000000000, 0.000000000000000000, 1.000000000000000000 ) ) ;
#125 = AXIS2_PLACEMENT_3D ( 'NONE', #161, #76, #197 ) ;
#126 = APPROVAL_PERSON_ORGANIZATION ( #190, #275, #295 ) ;
#127 = VERTEX_POINT ( 'NONE', #119 ) ;
#128 = COORDINATED_UNIVERSAL_TIME_OFFSET ( 9, 0, .AHEAD. ) ;
#129 = ORIENTED_EDGE ( 'NONE', *, *, #179, .F. ) ;
#130 = PERSON ( 'UNSPECIFIED', 'UNSPECIFIED', 'UNSPECIFIED', ('UNSPECIFIED'), ('UNSPECIFIED'), ('UNSPECIFIED') ) ;
#131 = PERSON_AND_ORGANIZATION_ROLE ( 'design_supplier' ) ;
#132 = VECTOR ( 'NONE', #313, 1000.000000000000114 ) ;
#133 = FACE_OUTER_BOUND ( 'NONE', #4, .T. ) ;
#134 = LINE ( 'NONE', #39, #80 ) ;
#135 = ADVANCED_FACE ( 'NONE', ( #58 ), #30, .T. ) ;
#136 = CALENDAR_DATE ( 2021, 25, 10 ) ;
#137 = CIRCLE ( 'NONE', #340, 9.267949192431119698 ) ;
#138 = CARTESIAN_POINT ( 'NONE',  ( 0.000000000000000000, 0.000000000000000000, 0.000000000000000000 ) ) ;
#139 = DIRECTION ( 'NONE',  ( -1.000000000000000000, 0.000000000000000000, 0.000000000000000000 ) ) ;
#140 = VERTEX_POINT ( 'NONE', #193 ) ;
#141 = EDGE_CURVE ( 'NONE', #43, #189, #341, .T. ) ;
#142 = AXIS2_PLACEMENT_3D ( 'NONE', #263, #120, #88 ) ;
#143 = AXIS2_PLACEMENT_3D ( 'NONE', #278, #81, #74 ) ;
#144 = EDGE_CURVE ( 'NONE', #44, #349, #196, .T. ) ;
#145 = ORIENTED_EDGE ( 'NONE', *, *, #77, .T. ) ;
#146 = ORIENTED_EDGE ( 'NONE', *, *, #116, .T. ) ;
#147 = AXIS2_PLACEMENT_3D ( 'NONE', #163, #67, #185 ) ;
#148 = ADVANCED_BREP_SHAPE_REPRESENTATION ( 'bj720-22001', ( #182, #281 ), #252 ) ;
#149 = VERTEX_POINT ( 'NONE', #109 ) ;
#150 = APPLICATION_CONTEXT ( 'configuration controlled 3d designs of mechanical parts and assemblies' ) ;
#151 = DIRECTION ( 'NONE',  ( 0.000000000000000000, 0.000000000000000000, 1.000000000000000000 ) ) ;
#152 = ORIENTED_EDGE ( 'NONE', *, *, #250, .F. ) ;
#153 = CARTESIAN_POINT ( 'NONE',  ( 8.113248654051860242, 1.170348939274603319E-15, 49.00000000000000000 ) ) ;
#154 = CARTESIAN_POINT ( 'NONE',  ( 0.000000000000000000, 0.000000000000000000, 3.000000000000000000 ) ) ;
#155 = PERSON_AND_ORGANIZATION ( #130, #31 ) ;
#156 = CONICAL_SURFACE ( 'NONE', #18, 11.00000000000000000, 0.5235987755982987046 ) ;
#157 = CYLINDRICAL_SURFACE ( 'NONE', #299, 11.00000000000000000 ) ;
#158 = CC_DESIGN_PERSON_AND_ORGANIZATION_ASSIGNMENT ( #155, #131, ( #13 ) ) ;
#159 = PERSON_AND_ORGANIZATION ( #130, #31 ) ;
#160 = APPROVAL_ROLE ( '' ) ;
#161 = CARTESIAN_POINT ( 'NONE',  ( 0.000000000000000000, 0.000000000000000000, 49.00000000000000000 ) ) ;
#162 = ADVANCED_FACE ( 'NONE', ( #133 ), #329, .F. ) ;
#163 = CARTESIAN_POINT ( 'NONE',  ( 0.000000000000000000, 0.000000000000000000, 39.00000000000000000 ) ) ;
#164 = APPROVAL_ROLE ( '' ) ;
#165 = DIRECTION ( 'NONE',  ( 1.000000000000000000, 0.000000000000000000, 0.000000000000000000 ) ) ;
#166 = CYLINDRICAL_SURFACE ( 'NONE', #85, 2.500000000000000000 ) ;
#167 = EDGE_CURVE ( 'NONE', #149, #140, #57, .T. ) ;
#168 = CARTESIAN_POINT ( 'NONE',  ( -11.00000000000000000, 1.347111479062088405E-15, 50.00000000000000000 ) ) ;
#169 = PLANE ( 'NONE',  #79 ) ;
#170 = DIRECTION ( 'NONE',  ( 1.000000000000000000, 0.000000000000000000, 0.000000000000000000 ) ) ;
#171 = DESIGN_CONTEXT ( 'detailed design', #150, 'design' ) ;
#172 = LINE ( 'NONE', #82, #351 ) ;
#173 = LOCAL_TIME ( 8, 59, 24.00000000000000000, #9 ) ;
#174 = ORIENTED_EDGE ( 'NONE', *, *, #27, .F. ) ;
#175 = CARTESIAN_POINT ( 'NONE',  ( 0.000000000000000000, 0.000000000000000000, 44.00000000000000000 ) ) ;
#176 = ORIENTED_EDGE ( 'NONE', *, *, #179, .T. ) ;
#177 = ORIENTED_EDGE ( 'NONE', *, *, #90, .T. ) ;
#178 = DIRECTION ( 'NONE',  ( 0.000000000000000000, 0.000000000000000000, 1.000000000000000000 ) ) ;
#179 = EDGE_CURVE ( 'NONE', #44, #259, #201, .T. ) ;
#180 = VERTEX_POINT ( 'NONE', #117 ) ;
#181 = VECTOR ( 'NONE', #191, 1000.000000000000000 ) ;
#182 = MANIFOLD_SOLID_BREP ( 'Imported1', #47 ) ;
#183 = PLANE ( 'NONE',  #241 ) ;
#184 = ORIENTED_EDGE ( 'NONE', *, *, #141, .T. ) ;
#185 = DIRECTION ( 'NONE',  ( 1.000000000000000000, 0.000000000000000000, 0.000000000000000000 ) ) ;
#186 = CARTESIAN_POINT ( 'NONE',  ( 0.000000000000000000, 0.000000000000000000, 44.00000000000000000 ) ) ;
#187 = ADVANCED_FACE ( 'NONE', ( #63 ), #183, .T. ) ;
#188 = SHAPE_DEFINITION_REPRESENTATION ( #92, #148 ) ;
#189 = VERTEX_POINT ( 'NONE', #339 ) ;
#190 = PERSON_AND_ORGANIZATION ( #130, #31 ) ;
#191 = DIRECTION ( 'NONE',  ( 0.000000000000000000, 0.000000000000000000, 1.000000000000000000 ) ) ;
#192 = CARTESIAN_POINT ( 'NONE',  ( 11.00000000000000000, 0.000000000000000000, 50.00000000000000000 ) ) ;
#193 = CARTESIAN_POINT ( 'NONE',  ( -11.00000000000000000, 1.347111479062088405E-15, 44.00000000000000000 ) ) ;
#194 = CALENDAR_DATE ( 2021, 25, 10 ) ;
#195 = CARTESIAN_POINT ( 'NONE',  ( 11.00000000000000000, 0.000000000000000000, 3.000000000000000000 ) ) ;
#196 = CIRCLE ( 'NONE', #42, 9.267949192431119698 ) ;
#197 = DIRECTION ( 'NONE',  ( 1.000000000000000000, 0.000000000000000000, 0.000000000000000000 ) ) ;
#198 = CC_DESIGN_SECURITY_CLASSIFICATION ( #304, ( #13 ) ) ;
#199 = AXIS2_PLACEMENT_3D ( 'NONE', #186, #237, #229 ) ;
#200 = EDGE_CURVE ( 'NONE', #127, #140, #172, .T. ) ;
#201 = LINE ( 'NONE', #315, #75 ) ;
#202 = AXIS2_PLACEMENT_3D ( 'NONE', #260, #352, #97 ) ;
#203 = FACE_BOUND ( 'NONE', #19, .T. ) ;
#204 = CONICAL_SURFACE ( 'NONE', #337, 11.00000000000000000, 0.5235987755982992597 ) ;
#205 = ADVANCED_FACE ( 'NONE', ( #354 ), #157, .T. ) ;
#206 = EDGE_LOOP ( 'NONE', ( #344, #236, #95, #230 ) ) ;
#207 = ORIENTED_EDGE ( 'NONE', *, *, #77, .F. ) ;
#208 = ORIENTED_EDGE ( 'NONE', *, *, #246, .T. ) ;
#209 = DIRECTION ( 'NONE',  ( 0.000000000000000000, 0.000000000000000000, 1.000000000000000000 ) ) ;
#210 = EDGE_LOOP ( 'NONE', ( #207, #177, #98, #254 ) ) ;
#211 =( NAMED_UNIT ( * ) SI_UNIT ( $, .STERADIAN. ) SOLID_ANGLE_UNIT ( ) );
#212 = PERSON_AND_ORGANIZATION ( #130, #31 ) ;
#213 = AXIS2_PLACEMENT_3D ( 'NONE', #41, #317, #17 ) ;
#214 = PERSON_AND_ORGANIZATION ( #130, #31 ) ;
#215 = CIRCLE ( 'NONE', #290, 8.113248654051860242 ) ;
#216 = APPROVAL_DATE_TIME ( #6, #323 ) ;
#217 = DIRECTION ( 'NONE',  ( 0.000000000000000000, 0.000000000000000000, 1.000000000000000000 ) ) ;
#218 = DIRECTION ( 'NONE',  ( 1.000000000000000000, 0.000000000000000000, 0.000000000000000000 ) ) ;
#219 = PERSON_AND_ORGANIZATION ( #130, #31 ) ;
#220 = AXIS2_PLACEMENT_3D ( 'NONE', #10, #209, #319 ) ;
#221 = CARTESIAN_POINT ( 'NONE',  ( 9.267949192431119698, 0.000000000000000000, 0.000000000000000000 ) ) ;
#222 = ADVANCED_FACE ( 'NONE', ( #49 ), #243, .T. ) ;
#223 = APPLICATION_CONTEXT ( 'configuration controlled 3d designs of mechanical parts and assemblies' ) ;
#224 = LOCAL_TIME ( 8, 59, 24.00000000000000000, #239 ) ;
#225 = CIRCLE ( 'NONE', #297, 2.500000000000000000 ) ;
#226 = ORIENTED_EDGE ( 'NONE', *, *, #55, .F. ) ;
#227 = CC_DESIGN_DATE_AND_TIME_ASSIGNMENT ( #266, #270, ( #304 ) ) ;
#228 = DIRECTION ( 'NONE',  ( 1.000000000000000000, 0.000000000000000000, 0.000000000000000000 ) ) ;
#229 = DIRECTION ( 'NONE',  ( 1.000000000000000000, 0.000000000000000000, 0.000000000000000000 ) ) ;
#230 = ORIENTED_EDGE ( 'NONE', *, *, #104, .T. ) ;
#231 = FACE_OUTER_BOUND ( 'NONE', #355, .T. ) ;
#232 = VERTEX_POINT ( 'NONE', #195 ) ;
#233 = PRODUCT ( 'bj720-22001', 'bj720-22001', '', ( #326 ) ) ;
#234 = ORIENTED_EDGE ( 'NONE', *, *, #116, .F. ) ;
#235 = EDGE_CURVE ( 'NONE', #349, #232, #134, .T. ) ;
#236 = ORIENTED_EDGE ( 'NONE', *, *, #246, .F. ) ;
#237 = DIRECTION ( 'NONE',  ( 0.000000000000000000, 0.000000000000000000, 1.000000000000000000 ) ) ;
#238 = CALENDAR_DATE ( 2021, 25, 10 ) ;
#239 = COORDINATED_UNIVERSAL_TIME_OFFSET ( 9, 0, .AHEAD. ) ;
#240 = DIRECTION ( 'NONE',  ( 1.000000000000000000, 0.000000000000000000, 0.000000000000000000 ) ) ;
#241 = AXIS2_PLACEMENT_3D ( 'NONE', #292, #151, #114 ) ;
#242 = EDGE_CURVE ( 'NONE', #232, #259, #107, .T. ) ;
#243 = CYLINDRICAL_SURFACE ( 'NONE', #265, 11.00000000000000000 ) ;
#244 = APPLICATION_PROTOCOL_DEFINITION ( 'international standard', 'config_control_design', 1994, #150 ) ;
#245 = COORDINATED_UNIVERSAL_TIME_OFFSET ( 9, 0, .AHEAD. ) ;
#246 = EDGE_CURVE ( 'NONE', #127, #86, #215, .T. ) ;
#247 = DIRECTION ( 'NONE',  ( 0.000000000000000000, 0.000000000000000000, 1.000000000000000000 ) ) ;
#248 = ORIENTED_EDGE ( 'NONE', *, *, #167, .F. ) ;
#249 =( NAMED_UNIT ( * ) PLANE_ANGLE_UNIT ( ) SI_UNIT ( $, .RADIAN. ) );
#250 = EDGE_CURVE ( 'NONE', #86, #127, #100, .T. ) ;
#251 = CIRCLE ( 'NONE', #125, 2.500000000000000000 ) ;
#252 =( GEOMETRIC_REPRESENTATION_CONTEXT ( 3 ) GLOBAL_UNCERTAINTY_ASSIGNED_CONTEXT ( ( #348 ) ) GLOBAL_UNIT_ASSIGNED_CONTEXT ( ( #3, #249, #211 ) ) REPRESENTATION_CONTEXT ( 'NONE', 'WORKASPACE' ) );
#253 = ORIENTED_EDGE ( 'NONE', *, *, #291, .T. ) ;
#254 = ORIENTED_EDGE ( 'NONE', *, *, #104, .F. ) ;
#255 = DIRECTION ( 'NONE',  ( 0.000000000000000000, 0.000000000000000000, 1.000000000000000000 ) ) ;
#256 = PRODUCT_RELATED_PRODUCT_CATEGORY ( 'detail', '', ( #233 ) ) ;
#257 = CARTESIAN_POINT ( 'NONE',  ( -11.00000000000000000, 1.347111479062088405E-15, 3.000000000000000000 ) ) ;
#258 = CC_DESIGN_PERSON_AND_ORGANIZATION_ASSIGNMENT ( #28, #102, ( #233 ) ) ;
#259 = VERTEX_POINT ( 'NONE', #257 ) ;
#260 = CARTESIAN_POINT ( 'NONE',  ( 8.113248654051860242, 0.000000000000000000, 49.00000000000000000 ) ) ;
#261 = VERTEX_POINT ( 'NONE', #96 ) ;
#262 = LINE ( 'NONE', #353, #132 ) ;
#263 = CARTESIAN_POINT ( 'NONE',  ( 0.000000000000000000, 0.000000000000000000, 3.000000000000000000 ) ) ;
#264 = APPROVAL_STATUS ( 'not_yet_approved' ) ;
#265 = AXIS2_PLACEMENT_3D ( 'NONE', #8, #273, #218 ) ;
#266 = DATE_AND_TIME ( #101, #224 ) ;
#267 = CARTESIAN_POINT ( 'NONE',  ( -2.500000000000000000, 3.061616997868383141E-16, 50.00000000000000000 ) ) ;
#268 = CARTESIAN_POINT ( 'NONE',  ( 0.000000000000000000, 0.000000000000000000, 0.000000000000000000 ) ) ;
#269 = CARTESIAN_POINT ( 'NONE',  ( 0.000000000000000000, 0.000000000000000000, 50.00000000000000000 ) ) ;
#270 = DATE_TIME_ROLE ( 'classification_date' ) ;
#271 = CARTESIAN_POINT ( 'NONE',  ( 2.500000000000000000, 0.000000000000000000, 49.00000000000000000 ) ) ;
#272 = CIRCLE ( 'NONE', #147, 2.500000000000000000 ) ;
#273 = DIRECTION ( 'NONE',  ( 0.000000000000000000, 0.000000000000000000, 1.000000000000000000 ) ) ;
#274 = DATE_AND_TIME ( #33, #173 ) ;
#275 = APPROVAL ( #46, 'UNSPECIFIED' ) ;
#276 = ORIENTED_EDGE ( 'NONE', *, *, #308, .T. ) ;
#277 = CIRCLE ( 'NONE', #213, 11.00000000000000000 ) ;
#278 = CARTESIAN_POINT ( 'NONE',  ( 0.000000000000000000, 0.000000000000000000, 3.000000000000000000 ) ) ;
#279 = ORIENTED_EDGE ( 'NONE', *, *, #144, .F. ) ;
#280 = EDGE_CURVE ( 'NONE', #261, #189, #350, .T. ) ;
#281 = AXIS2_PLACEMENT_3D ( 'NONE', #268, #334, #105 ) ;
#282 = ORIENTED_EDGE ( 'NONE', *, *, #12, .F. ) ;
#283 = EDGE_LOOP ( 'NONE', ( #347, #310, #146, #184 ) ) ;
#284 = DIRECTION ( 'NONE',  ( 0.000000000000000000, 0.000000000000000000, 1.000000000000000000 ) ) ;
#285 = DIRECTION ( 'NONE',  ( 0.000000000000000000, 0.000000000000000000, -1.000000000000000000 ) ) ;
#286 = CARTESIAN_POINT ( 'NONE',  ( 0.000000000000000000, 0.000000000000000000, 0.000000000000000000 ) ) ;
#287 = ORIENTED_EDGE ( 'NONE', *, *, #242, .F. ) ;
#288 = DIRECTION ( 'NONE',  ( 1.000000000000000000, 0.000000000000000000, 0.000000000000000000 ) ) ;
#289 = ORIENTED_EDGE ( 'NONE', *, *, #242, .T. ) ;
#290 = AXIS2_PLACEMENT_3D ( 'NONE', #122, #284, #228 ) ;
#291 = EDGE_CURVE ( 'NONE', #261, #180, #272, .T. ) ;
#292 = CARTESIAN_POINT ( 'NONE',  ( 0.000000000000000000, 0.000000000000000000, 39.00000000000000000 ) ) ;
#293 = ORIENTED_EDGE ( 'NONE', *, *, #280, .T. ) ;
#294 = FACE_OUTER_BOUND ( 'NONE', #89, .T. ) ;
#295 = APPROVAL_ROLE ( '' ) ;
#296 = APPLICATION_PROTOCOL_DEFINITION ( 'international standard', 'config_control_design', 1994, #223 ) ;
#297 = AXIS2_PLACEMENT_3D ( 'NONE', #103, #115, #307 ) ;
#298 = PERSON_AND_ORGANIZATION ( #130, #31 ) ;
#299 = AXIS2_PLACEMENT_3D ( 'NONE', #330, #328, #324 ) ;
#300 = ADVANCED_FACE ( 'NONE', ( #294 ), #156, .T. ) ;
#301 = DIRECTION ( 'NONE',  ( 0.000000000000000000, 0.000000000000000000, 1.000000000000000000 ) ) ;
#302 = DIRECTION ( 'NONE',  ( 1.000000000000000000, 0.000000000000000000, 0.000000000000000000 ) ) ;
#303 = LOCAL_TIME ( 8, 59, 24.00000000000000000, #48 ) ;
#304 = SECURITY_CLASSIFICATION ( '', '', #333 ) ;
#305 = DIRECTION ( 'NONE',  ( 0.000000000000000000, 0.000000000000000000, 1.000000000000000000 ) ) ;
#306 = ADVANCED_FACE ( 'NONE', ( #318 ), #94, .T. ) ;
#307 = DIRECTION ( 'NONE',  ( 1.000000000000000000, 0.000000000000000000, 0.000000000000000000 ) ) ;
#308 = EDGE_CURVE ( 'NONE', #86, #149, #262, .T. ) ;
#309 = DIRECTION ( 'NONE',  ( -0.5000000000000003331, 0.000000000000000000, -0.8660254037844383745 ) ) ;
#310 = ORIENTED_EDGE ( 'NONE', *, *, #59, .F. ) ;
#311 = AXIS2_PLACEMENT_3D ( 'NONE', #60, #178, #288 ) ;
#312 = CARTESIAN_POINT ( 'NONE',  ( 0.000000000000000000, 0.000000000000000000, 3.000000000000000000 ) ) ;
#313 = DIRECTION ( 'NONE',  ( 0.5000000000000003331, 6.123233995736769734E-17, -0.8660254037844383745 ) ) ;
#314 = CARTESIAN_POINT ( 'NONE',  ( 2.500000000000000000, 0.000000000000000000, 50.00000000000000000 ) ) ;
#315 = CARTESIAN_POINT ( 'NONE',  ( -11.00000000000000000, 1.347111479062088405E-15, 3.000000000000000000 ) ) ;
#316 = LOCAL_TIME ( 8, 59, 24.00000000000000000, #245 ) ;
#317 = DIRECTION ( 'NONE',  ( 0.000000000000000000, 0.000000000000000000, 1.000000000000000000 ) ) ;
#318 = FACE_OUTER_BOUND ( 'NONE', #320, .T. ) ;
#319 = DIRECTION ( 'NONE',  ( 1.000000000000000000, 0.000000000000000000, 0.000000000000000000 ) ) ;
#320 = EDGE_LOOP ( 'NONE', ( #113, #176, #287, #26 ) ) ;
#321 = APPROVAL_DATE_TIME ( #71, #2 ) ;
#322 = ORIENTED_EDGE ( 'NONE', *, *, #250, .T. ) ;
#323 = APPROVAL ( #264, 'UNSPECIFIED' ) ;
#324 = DIRECTION ( 'NONE',  ( 1.000000000000000000, 0.000000000000000000, 0.000000000000000000 ) ) ;
#325 = CC_DESIGN_APPROVAL ( #275, ( #13 ) ) ;
#326 = MECHANICAL_CONTEXT ( 'NONE', #223, 'mechanical' ) ;
#327 = ORIENTED_EDGE ( 'NONE', *, *, #12, .T. ) ;
#328 = DIRECTION ( 'NONE',  ( 0.000000000000000000, 0.000000000000000000, 1.000000000000000000 ) ) ;
#329 = CYLINDRICAL_SURFACE ( 'NONE', #220, 2.500000000000000000 ) ;
#330 = CARTESIAN_POINT ( 'NONE',  ( 0.000000000000000000, 0.000000000000000000, 50.00000000000000000 ) ) ;
#331 = ADVANCED_FACE ( 'NONE', ( #65 ), #204, .T. ) ;
#332 = CC_DESIGN_APPROVAL ( #323, ( #304 ) ) ;
#333 = SECURITY_CLASSIFICATION_LEVEL ( 'unclassified' ) ;
#334 = DIRECTION ( 'NONE',  ( 0.000000000000000000, 0.000000000000000000, 1.000000000000000000 ) ) ;
#335 = AXIS2_PLACEMENT_3D ( 'NONE', #312, #20, #25 ) ;
#336 = FACE_OUTER_BOUND ( 'NONE', #64, .T. ) ;
#337 = AXIS2_PLACEMENT_3D ( 'NONE', #38, #45, #139 ) ;
#338 = CC_DESIGN_PERSON_AND_ORGANIZATION_ASSIGNMENT ( #219, #70, ( #111 ) ) ;
#339 = CARTESIAN_POINT ( 'NONE',  ( -2.500000000000000000, 3.061616997868383141E-16, 49.00000000000000000 ) ) ;
#340 = AXIS2_PLACEMENT_3D ( 'NONE', #7, #301, #165 ) ;
#341 = CIRCLE ( 'NONE', #5, 2.500000000000000000 ) ;
#342 = DIRECTION ( 'NONE',  ( -1.000000000000000000, 0.000000000000000000, 0.000000000000000000 ) ) ;
#343 = DIRECTION ( 'NONE',  ( -0.4999999999999998890, 6.123233995736764803E-17, 0.8660254037844387076 ) ) ;
#344 = ORIENTED_EDGE ( 'NONE', *, *, #308, .F. ) ;
#345 = CC_DESIGN_DATE_AND_TIME_ASSIGNMENT ( #68, #1, ( #111 ) ) ;
#346 = EDGE_LOOP ( 'NONE', ( #87, #253 ) ) ;
#347 = ORIENTED_EDGE ( 'NONE', *, *, #280, .F. ) ;
#348 = UNCERTAINTY_MEASURE_WITH_UNIT (LENGTH_MEASURE( 1.000000000000000082E-05 ), #3, 'distance_accuracy_value', 'NONE');
#349 = VERTEX_POINT ( 'NONE', #221 ) ;
#350 = LINE ( 'NONE', #267, #181 ) ;
#351 = VECTOR ( 'NONE', #309, 1000.000000000000114 ) ;
#352 = DIRECTION ( 'NONE',  ( 0.000000000000000000, 0.000000000000000000, -1.000000000000000000 ) ) ;
#353 = CARTESIAN_POINT ( 'NONE',  ( 11.00000000000000000, 1.347111479062088405E-15, 44.00000000000000000 ) ) ;
#354 = FACE_OUTER_BOUND ( 'NONE', #210, .T. ) ;
#355 = EDGE_LOOP ( 'NONE', ( #208, #322 ) ) ;
ENDSEC;
END-ISO-10303-21;
