ISO-10303-21;
HEADER;
FILE_DESCRIPTION (( 'STEP AP203' ),
    '1' );
FILE_NAME ('bj623-16001.STEP',
    '2021-10-24T23:57:43',
    ( '' ),
    ( '' ),
    'SwSTEP 2.0',
    'SolidWorks 2020',
    '' );
FILE_SCHEMA (( 'CONFIG_CONTROL_DESIGN' ));
ENDSEC;

DATA;
#1 = ADVANCED_FACE ( 'NONE', ( #104, #173 ), #123, .T. ) ;
#2 = DIRECTION ( 'NONE',  ( 0.000000000000000000, 0.000000000000000000, 1.000000000000000000 ) ) ;
#3 = ORIENTED_EDGE ( 'NONE', *, *, #93, .T. ) ;
#4 = CIRCLE ( 'NONE', #84, 25.00000000000000000 ) ;
#5 = VERTEX_POINT ( 'NONE', #80 ) ;
#6 = VERTEX_POINT ( 'NONE', #248 ) ;
#7 = LOCAL_TIME ( 8, 57, 43.00000000000000000, #13 ) ;
#8 = CARTESIAN_POINT ( 'NONE',  ( 0.000000000000000000, 0.000000000000000000, 5.000000000000000000 ) ) ;
#9 = APPROVAL_DATE_TIME ( #186, #10 ) ;
#10 = APPROVAL ( #151, 'UNSPECIFIED' ) ;
#11 = PERSON_AND_ORGANIZATION ( #97, #237 ) ;
#12 = EDGE_CURVE ( 'NONE', #20, #62, #187, .T. ) ;
#13 = COORDINATED_UNIVERSAL_TIME_OFFSET ( 9, 0, .AHEAD. ) ;
#14 = APPLICATION_PROTOCOL_DEFINITION ( 'international standard', 'config_control_design', 1994, #221 ) ;
#15 = ADVANCED_FACE ( 'NONE', ( #213 ), #155, .F. ) ;
#16 = CARTESIAN_POINT ( 'NONE',  ( 25.00000000000000000, 3.061616997868383043E-15, 5.000000000000000000 ) ) ;
#17 = AXIS2_PLACEMENT_3D ( 'NONE', #142, #195, #118 ) ;
#18 = ORIENTED_EDGE ( 'NONE', *, *, #49, .F. ) ;
#19 = EDGE_CURVE ( 'NONE', #177, #148, #234, .T. ) ;
#20 = VERTEX_POINT ( 'NONE', #245 ) ;
#21 = ORIENTED_EDGE ( 'NONE', *, *, #116, .F. ) ;
#22 = ORIENTED_EDGE ( 'NONE', *, *, #71, .F. ) ;
#23 = ORIENTED_EDGE ( 'NONE', *, *, #231, .F. ) ;
#24 = CARTESIAN_POINT ( 'NONE',  ( 0.000000000000000000, 0.000000000000000000, 5.000000000000000000 ) ) ;
#25 = AXIS2_PLACEMENT_3D ( 'NONE', #230, #156, #82 ) ;
#26 = VECTOR ( 'NONE', #78, 1000.000000000000000 ) ;
#27 = APPLICATION_PROTOCOL_DEFINITION ( 'international standard', 'config_control_design', 1994, #39 ) ;
#28 = CALENDAR_DATE ( 2021, 25, 10 ) ;
#29 = APPROVAL_ROLE ( '' ) ;
#30 = LOCAL_TIME ( 8, 57, 43.00000000000000000, #242 ) ;
#31 = PERSON_AND_ORGANIZATION ( #97, #237 ) ;
#32 = ORIENTED_EDGE ( 'NONE', *, *, #217, .T. ) ;
#33 = DATE_AND_TIME ( #125, #30 ) ;
#34 = DIRECTION ( 'NONE',  ( -1.000000000000000000, 0.000000000000000000, 0.000000000000000000 ) ) ;
#35 = CARTESIAN_POINT ( 'NONE',  ( -25.00000000000000000, 0.000000000000000000, 5.000000000000000000 ) ) ;
#36 = AXIS2_PLACEMENT_3D ( 'NONE', #212, #141, #139 ) ;
#37 = COORDINATED_UNIVERSAL_TIME_OFFSET ( 9, 0, .AHEAD. ) ;
#38 = CARTESIAN_POINT ( 'NONE',  ( 0.000000000000000000, 0.000000000000000000, 0.000000000000000000 ) ) ;
#39 = APPLICATION_CONTEXT ( 'configuration controlled 3d designs of mechanical parts and assemblies' ) ;
#40 = DIRECTION ( 'NONE',  ( 1.000000000000000000, 0.000000000000000000, 0.000000000000000000 ) ) ;
#41 = ORIENTED_EDGE ( 'NONE', *, *, #231, .T. ) ;
#42 = DIRECTION ( 'NONE',  ( 0.000000000000000000, 0.000000000000000000, -1.000000000000000000 ) ) ;
#43 = ORIENTED_EDGE ( 'NONE', *, *, #69, .F. ) ;
#44 = LINE ( 'NONE', #51, #149 ) ;
#45 = ADVANCED_BREP_SHAPE_REPRESENTATION ( 'bj623-16001', ( #183, #56 ), #235 ) ;
#46 = ORIENTED_EDGE ( 'NONE', *, *, #12, .F. ) ;
#47 = VECTOR ( 'NONE', #126, 1000.000000000000000 ) ;
#48 = DIRECTION ( 'NONE',  ( 0.000000000000000000, 0.000000000000000000, -1.000000000000000000 ) ) ;
#49 = EDGE_CURVE ( 'NONE', #198, #5, #135, .T. ) ;
#50 = CIRCLE ( 'NONE', #205, 25.00000000000000000 ) ;
#51 = CARTESIAN_POINT ( 'NONE',  ( 8.500000000000000000, 1.040949779275250140E-15, 5.000000000000000000 ) ) ;
#52 = AXIS2_PLACEMENT_3D ( 'NONE', #218, #215, #133 ) ;
#53 = DIRECTION ( 'NONE',  ( 0.000000000000000000, 0.000000000000000000, 1.000000000000000000 ) ) ;
#54 = PERSON_AND_ORGANIZATION ( #97, #237 ) ;
#55 = APPROVAL_ROLE ( '' ) ;
#56 = AXIS2_PLACEMENT_3D ( 'NONE', #239, #53, #74 ) ;
#57 = EDGE_CURVE ( 'NONE', #148, #177, #161, .T. ) ;
#58 = DIRECTION ( 'NONE',  ( -1.000000000000000000, 0.000000000000000000, 0.000000000000000000 ) ) ;
#59 = ORIENTED_EDGE ( 'NONE', *, *, #57, .F. ) ;
#60 = CARTESIAN_POINT ( 'NONE',  ( 0.000000000000000000, 0.000000000000000000, 5.000000000000000000 ) ) ;
#61 = EDGE_CURVE ( 'NONE', #198, #216, #83, .T. ) ;
#62 = VERTEX_POINT ( 'NONE', #85 ) ;
#63 = ORIENTED_EDGE ( 'NONE', *, *, #19, .F. ) ;
#64 = CARTESIAN_POINT ( 'NONE',  ( 0.000000000000000000, 0.000000000000000000, 5.000000000000000000 ) ) ;
#65 = CC_DESIGN_SECURITY_CLASSIFICATION ( #172, ( #192 ) ) ;
#66 = EDGE_CURVE ( 'NONE', #177, #62, #208, .T. ) ;
#67 = ADVANCED_FACE ( 'NONE', ( #102 ), #159, .T. ) ;
#68 = CARTESIAN_POINT ( 'NONE',  ( 25.00000000000000000, 3.061616997868383043E-15, 0.000000000000000000 ) ) ;
#69 = EDGE_CURVE ( 'NONE', #5, #6, #170, .T. ) ;
#70 = CC_DESIGN_APPROVAL ( #77, ( #172 ) ) ;
#71 = EDGE_CURVE ( 'NONE', #5, #198, #50, .T. ) ;
#72 = PERSON_AND_ORGANIZATION_ROLE ( 'design_owner' ) ;
#73 = VECTOR ( 'NONE', #209, 1000.000000000000000 ) ;
#74 = DIRECTION ( 'NONE',  ( 1.000000000000000000, 0.000000000000000000, 0.000000000000000000 ) ) ;
#75 = PRODUCT ( 'bj623-16001', 'bj623-16001', '', ( #115 ) ) ;
#76 = FACE_OUTER_BOUND ( 'NONE', #199, .T. ) ;
#77 = APPROVAL ( #243, 'UNSPECIFIED' ) ;
#78 = DIRECTION ( 'NONE',  ( 0.000000000000000000, 0.000000000000000000, -1.000000000000000000 ) ) ;
#79 = CALENDAR_DATE ( 2021, 25, 10 ) ;
#80 = CARTESIAN_POINT ( 'NONE',  ( -25.00000000000000000, 0.000000000000000000, 5.000000000000000000 ) ) ;
#81 = PERSON_AND_ORGANIZATION_ROLE ( 'classification_officer' ) ;
#82 = DIRECTION ( 'NONE',  ( 1.000000000000000000, 0.000000000000000000, 0.000000000000000000 ) ) ;
#83 = LINE ( 'NONE', #16, #47 ) ;
#84 = AXIS2_PLACEMENT_3D ( 'NONE', #38, #101, #176 ) ;
#85 = CARTESIAN_POINT ( 'NONE',  ( -8.500000000000000000, 0.000000000000000000, 0.000000000000000000 ) ) ;
#86 = ORIENTED_EDGE ( 'NONE', *, *, #71, .T. ) ;
#87 = ORIENTED_EDGE ( 'NONE', *, *, #116, .T. ) ;
#88 = DIRECTION ( 'NONE',  ( -1.000000000000000000, 0.000000000000000000, 0.000000000000000000 ) ) ;
#89 = APPROVAL_PERSON_ORGANIZATION ( #54, #131, #55 ) ;
#90 = DIRECTION ( 'NONE',  ( 0.000000000000000000, 0.000000000000000000, -1.000000000000000000 ) ) ;
#91 = CLOSED_SHELL ( 'NONE', ( #15, #67, #1, #145, #166, #179 ) ) ;
#92 = DATE_AND_TIME ( #207, #124 ) ;
#93 = EDGE_CURVE ( 'NONE', #62, #20, #210, .T. ) ;
#94 = CALENDAR_DATE ( 2021, 25, 10 ) ;
#95 = COORDINATED_UNIVERSAL_TIME_OFFSET ( 9, 0, .AHEAD. ) ;
#96 = CC_DESIGN_PERSON_AND_ORGANIZATION_ASSIGNMENT ( #31, #81, ( #172 ) ) ;
#97 = PERSON ( 'UNSPECIFIED', 'UNSPECIFIED', 'UNSPECIFIED', ('UNSPECIFIED'), ('UNSPECIFIED'), ('UNSPECIFIED') ) ;
#98 = AXIS2_PLACEMENT_3D ( 'NONE', #60, #42, #58 ) ;
#99 = DIRECTION ( 'NONE',  ( 0.000000000000000000, 0.000000000000000000, 1.000000000000000000 ) ) ;
#100 = AXIS2_PLACEMENT_3D ( 'NONE', #24, #48, #88 ) ;
#101 = DIRECTION ( 'NONE',  ( 0.000000000000000000, 0.000000000000000000, 1.000000000000000000 ) ) ;
#102 = FACE_OUTER_BOUND ( 'NONE', #128, .T. ) ;
#103 = ORIENTED_EDGE ( 'NONE', *, *, #61, .F. ) ;
#104 = FACE_OUTER_BOUND ( 'NONE', #146, .T. ) ;
#105 = AXIS2_PLACEMENT_3D ( 'NONE', #158, #233, #110 ) ;
#106 = ORIENTED_EDGE ( 'NONE', *, *, #61, .T. ) ;
#107 = ORIENTED_EDGE ( 'NONE', *, *, #217, .F. ) ;
#108 = FACE_OUTER_BOUND ( 'NONE', #196, .T. ) ;
#109 = CARTESIAN_POINT ( 'NONE',  ( 8.500000000000000000, 1.040949779275250140E-15, 5.000000000000000000 ) ) ;
#110 = DIRECTION ( 'NONE',  ( 1.000000000000000000, 0.000000000000000000, 0.000000000000000000 ) ) ;
#111 = DATE_AND_TIME ( #94, #7 ) ;
#112 = PERSON_AND_ORGANIZATION ( #97, #237 ) ;
#113 = ORIENTED_EDGE ( 'NONE', *, *, #66, .T. ) ;
#114 = CC_DESIGN_DATE_AND_TIME_ASSIGNMENT ( #33, #120, ( #172 ) ) ;
#115 = MECHANICAL_CONTEXT ( 'NONE', #39, 'mechanical' ) ;
#116 = EDGE_CURVE ( 'NONE', #6, #216, #4, .T. ) ;
#117 = AXIS2_PLACEMENT_3D ( 'NONE', #169, #226, #211 ) ;
#118 = DIRECTION ( 'NONE',  ( 1.000000000000000000, 0.000000000000000000, 0.000000000000000000 ) ) ;
#119 = PRODUCT_DEFINITION_SHAPE ( 'NONE', 'NONE',  #206 ) ;
#120 = DATE_TIME_ROLE ( 'classification_date' ) ;
#121 = ORIENTED_EDGE ( 'NONE', *, *, #66, .F. ) ;
#122 = PLANE ( 'NONE',  #105 ) ;
#123 = PLANE ( 'NONE',  #223 ) ;
#124 = LOCAL_TIME ( 8, 57, 43.00000000000000000, #165 ) ;
#125 = CALENDAR_DATE ( 2021, 25, 10 ) ;
#126 = DIRECTION ( 'NONE',  ( 0.000000000000000000, 0.000000000000000000, -1.000000000000000000 ) ) ;
#127 = ORIENTED_EDGE ( 'NONE', *, *, #19, .T. ) ;
#128 = EDGE_LOOP ( 'NONE', ( #18, #106, #32, #43 ) ) ;
#129 = CYLINDRICAL_SURFACE ( 'NONE', #162, 8.500000000000000000 ) ;
#130 = APPROVAL_PERSON_ORGANIZATION ( #238, #10, #29 ) ;
#131 = APPROVAL ( #190, 'UNSPECIFIED' ) ;
#132 = CIRCLE ( 'NONE', #52, 25.00000000000000000 ) ;
#133 = DIRECTION ( 'NONE',  ( 1.000000000000000000, 0.000000000000000000, 0.000000000000000000 ) ) ;
#134 = DATE_TIME_ROLE ( 'creation_date' ) ;
#135 = CIRCLE ( 'NONE', #17, 25.00000000000000000 ) ;
#136 = APPROVAL_PERSON_ORGANIZATION ( #174, #77, #154 ) ;
#137 =( LENGTH_UNIT ( ) NAMED_UNIT ( * ) SI_UNIT ( .MILLI., .METRE. ) );
#138 = LOCAL_TIME ( 8, 57, 43.00000000000000000, #95 ) ;
#139 = DIRECTION ( 'NONE',  ( 1.000000000000000000, 0.000000000000000000, 0.000000000000000000 ) ) ;
#140 = APPROVAL_DATE_TIME ( #247, #77 ) ;
#141 = DIRECTION ( 'NONE',  ( 0.000000000000000000, 0.000000000000000000, 1.000000000000000000 ) ) ;
#142 = CARTESIAN_POINT ( 'NONE',  ( 0.000000000000000000, 0.000000000000000000, 5.000000000000000000 ) ) ;
#143 = CC_DESIGN_APPROVAL ( #131, ( #206 ) ) ;
#144 = EDGE_LOOP ( 'NONE', ( #23, #229, #113, #46 ) ) ;
#145 = ADVANCED_FACE ( 'NONE', ( #76, #152 ), #122, .F. ) ;
#146 = EDGE_LOOP ( 'NONE', ( #86, #214 ) ) ;
#147 = FACE_OUTER_BOUND ( 'NONE', #144, .T. ) ;
#148 = VERTEX_POINT ( 'NONE', #109 ) ;
#149 = VECTOR ( 'NONE', #191, 1000.000000000000000 ) ;
#150 = LOCAL_TIME ( 8, 57, 43.00000000000000000, #37 ) ;
#151 = APPROVAL_STATUS ( 'not_yet_approved' ) ;
#152 = FACE_BOUND ( 'NONE', #157, .T. ) ;
#153 = CARTESIAN_POINT ( 'NONE',  ( 0.000000000000000000, 0.000000000000000000, 5.000000000000000000 ) ) ;
#154 = APPROVAL_ROLE ( '' ) ;
#155 = CYLINDRICAL_SURFACE ( 'NONE', #98, 8.500000000000000000 ) ;
#156 = DIRECTION ( 'NONE',  ( 0.000000000000000000, 0.000000000000000000, 1.000000000000000000 ) ) ;
#157 = EDGE_LOOP ( 'NONE', ( #3, #180 ) ) ;
#158 = CARTESIAN_POINT ( 'NONE',  ( 0.000000000000000000, 0.000000000000000000, 0.000000000000000000 ) ) ;
#159 = CYLINDRICAL_SURFACE ( 'NONE', #182, 25.00000000000000000 ) ;
#160 = ORIENTED_EDGE ( 'NONE', *, *, #69, .T. ) ;
#161 = CIRCLE ( 'NONE', #36, 8.500000000000000000 ) ;
#162 = AXIS2_PLACEMENT_3D ( 'NONE', #8, #90, #163 ) ;
#163 = DIRECTION ( 'NONE',  ( -1.000000000000000000, 0.000000000000000000, 0.000000000000000000 ) ) ;
#164 = PERSON_AND_ORGANIZATION_ROLE ( 'creator' ) ;
#165 = COORDINATED_UNIVERSAL_TIME_OFFSET ( 9, 0, .AHEAD. ) ;
#166 = ADVANCED_FACE ( 'NONE', ( #108 ), #200, .T. ) ;
#167 =( NAMED_UNIT ( * ) PLANE_ANGLE_UNIT ( ) SI_UNIT ( $, .RADIAN. ) );
#168 = PERSON_AND_ORGANIZATION ( #97, #237 ) ;
#169 = CARTESIAN_POINT ( 'NONE',  ( 0.000000000000000000, 0.000000000000000000, 0.000000000000000000 ) ) ;
#170 = LINE ( 'NONE', #35, #26 ) ;
#171 = PRODUCT_RELATED_PRODUCT_CATEGORY ( 'detail', '', ( #75 ) ) ;
#172 = SECURITY_CLASSIFICATION ( '', '', #241 ) ;
#173 = FACE_BOUND ( 'NONE', #249, .T. ) ;
#174 = PERSON_AND_ORGANIZATION ( #97, #237 ) ;
#175 = DIRECTION ( 'NONE',  ( 1.000000000000000000, 0.000000000000000000, 0.000000000000000000 ) ) ;
#176 = DIRECTION ( 'NONE',  ( 1.000000000000000000, 0.000000000000000000, 0.000000000000000000 ) ) ;
#177 = VERTEX_POINT ( 'NONE', #184 ) ;
#178 = CARTESIAN_POINT ( 'NONE',  ( 0.000000000000000000, 0.000000000000000000, 5.000000000000000000 ) ) ;
#179 = ADVANCED_FACE ( 'NONE', ( #147 ), #129, .F. ) ;
#180 = ORIENTED_EDGE ( 'NONE', *, *, #12, .T. ) ;
#181 = DIRECTION ( 'NONE',  ( 1.000000000000000000, 0.000000000000000000, 0.000000000000000000 ) ) ;
#182 = AXIS2_PLACEMENT_3D ( 'NONE', #64, #194, #34 ) ;
#183 = MANIFOLD_SOLID_BREP ( 'Imported1', #91 ) ;
#184 = CARTESIAN_POINT ( 'NONE',  ( -8.500000000000000000, 0.000000000000000000, 5.000000000000000000 ) ) ;
#185 = CC_DESIGN_PERSON_AND_ORGANIZATION_ASSIGNMENT ( #240, #193, ( #192 ) ) ;
#186 = DATE_AND_TIME ( #28, #138 ) ;
#187 = CIRCLE ( 'NONE', #25, 8.500000000000000000 ) ;
#188 = CC_DESIGN_APPROVAL ( #10, ( #192 ) ) ;
#189 = PERSON_AND_ORGANIZATION_ROLE ( 'creator' ) ;
#190 = APPROVAL_STATUS ( 'not_yet_approved' ) ;
#191 = DIRECTION ( 'NONE',  ( 0.000000000000000000, 0.000000000000000000, -1.000000000000000000 ) ) ;
#192 = PRODUCT_DEFINITION_FORMATION_WITH_SPECIFIED_SOURCE ( 'ANY', '', #75, .NOT_KNOWN. ) ;
#193 = PERSON_AND_ORGANIZATION_ROLE ( 'design_supplier' ) ;
#194 = DIRECTION ( 'NONE',  ( 0.000000000000000000, 0.000000000000000000, -1.000000000000000000 ) ) ;
#195 = DIRECTION ( 'NONE',  ( 0.000000000000000000, 0.000000000000000000, 1.000000000000000000 ) ) ;
#196 = EDGE_LOOP ( 'NONE', ( #103, #22, #160, #87 ) ) ;
#197 = EDGE_LOOP ( 'NONE', ( #127, #41, #232, #121 ) ) ;
#198 = VERTEX_POINT ( 'NONE', #236 ) ;
#199 = EDGE_LOOP ( 'NONE', ( #21, #107 ) ) ;
#200 = CYLINDRICAL_SURFACE ( 'NONE', #100, 25.00000000000000000 ) ;
#201 = CC_DESIGN_DATE_AND_TIME_ASSIGNMENT ( #111, #134, ( #206 ) ) ;
#202 = AXIS2_PLACEMENT_3D ( 'NONE', #178, #99, #40 ) ;
#203 = CC_DESIGN_PERSON_AND_ORGANIZATION_ASSIGNMENT ( #168, #164, ( #192 ) ) ;
#204 = APPROVAL_DATE_TIME ( #92, #131 ) ;
#205 = AXIS2_PLACEMENT_3D ( 'NONE', #153, #224, #181 ) ;
#206 = PRODUCT_DEFINITION ( 'UNKNOWN', '', #192, #244 ) ;
#207 = CALENDAR_DATE ( 2021, 25, 10 ) ;
#208 = LINE ( 'NONE', #227, #73 ) ;
#209 = DIRECTION ( 'NONE',  ( 0.000000000000000000, 0.000000000000000000, -1.000000000000000000 ) ) ;
#210 = CIRCLE ( 'NONE', #117, 8.500000000000000000 ) ;
#211 = DIRECTION ( 'NONE',  ( 1.000000000000000000, 0.000000000000000000, 0.000000000000000000 ) ) ;
#212 = CARTESIAN_POINT ( 'NONE',  ( 0.000000000000000000, 0.000000000000000000, 5.000000000000000000 ) ) ;
#213 = FACE_OUTER_BOUND ( 'NONE', #197, .T. ) ;
#214 = ORIENTED_EDGE ( 'NONE', *, *, #49, .T. ) ;
#215 = DIRECTION ( 'NONE',  ( 0.000000000000000000, 0.000000000000000000, 1.000000000000000000 ) ) ;
#216 = VERTEX_POINT ( 'NONE', #68 ) ;
#217 = EDGE_CURVE ( 'NONE', #216, #6, #132, .T. ) ;
#218 = CARTESIAN_POINT ( 'NONE',  ( 0.000000000000000000, 0.000000000000000000, 0.000000000000000000 ) ) ;
#219 = CC_DESIGN_PERSON_AND_ORGANIZATION_ASSIGNMENT ( #112, #72, ( #75 ) ) ;
#220 =( NAMED_UNIT ( * ) SI_UNIT ( $, .STERADIAN. ) SOLID_ANGLE_UNIT ( ) );
#221 = APPLICATION_CONTEXT ( 'configuration controlled 3d designs of mechanical parts and assemblies' ) ;
#222 = UNCERTAINTY_MEASURE_WITH_UNIT (LENGTH_MEASURE( 1.000000000000000082E-05 ), #137, 'distance_accuracy_value', 'NONE');
#223 = AXIS2_PLACEMENT_3D ( 'NONE', #228, #2, #175 ) ;
#224 = DIRECTION ( 'NONE',  ( 0.000000000000000000, 0.000000000000000000, 1.000000000000000000 ) ) ;
#225 = SHAPE_DEFINITION_REPRESENTATION ( #119, #45 ) ;
#226 = DIRECTION ( 'NONE',  ( 0.000000000000000000, 0.000000000000000000, 1.000000000000000000 ) ) ;
#227 = CARTESIAN_POINT ( 'NONE',  ( -8.500000000000000000, 0.000000000000000000, 5.000000000000000000 ) ) ;
#228 = CARTESIAN_POINT ( 'NONE',  ( 0.000000000000000000, 0.000000000000000000, 5.000000000000000000 ) ) ;
#229 = ORIENTED_EDGE ( 'NONE', *, *, #57, .T. ) ;
#230 = CARTESIAN_POINT ( 'NONE',  ( 0.000000000000000000, 0.000000000000000000, 0.000000000000000000 ) ) ;
#231 = EDGE_CURVE ( 'NONE', #148, #20, #44, .T. ) ;
#232 = ORIENTED_EDGE ( 'NONE', *, *, #93, .F. ) ;
#233 = DIRECTION ( 'NONE',  ( 0.000000000000000000, 0.000000000000000000, 1.000000000000000000 ) ) ;
#234 = CIRCLE ( 'NONE', #202, 8.500000000000000000 ) ;
#235 =( GEOMETRIC_REPRESENTATION_CONTEXT ( 3 ) GLOBAL_UNCERTAINTY_ASSIGNED_CONTEXT ( ( #222 ) ) GLOBAL_UNIT_ASSIGNED_CONTEXT ( ( #137, #167, #220 ) ) REPRESENTATION_CONTEXT ( 'NONE', 'WORKASPACE' ) );
#236 = CARTESIAN_POINT ( 'NONE',  ( 25.00000000000000000, 3.061616997868383043E-15, 5.000000000000000000 ) ) ;
#237 = ORGANIZATION ( 'UNSPECIFIED', 'UNSPECIFIED', '' ) ;
#238 = PERSON_AND_ORGANIZATION ( #97, #237 ) ;
#239 = CARTESIAN_POINT ( 'NONE',  ( 0.000000000000000000, 0.000000000000000000, 0.000000000000000000 ) ) ;
#240 = PERSON_AND_ORGANIZATION ( #97, #237 ) ;
#241 = SECURITY_CLASSIFICATION_LEVEL ( 'unclassified' ) ;
#242 = COORDINATED_UNIVERSAL_TIME_OFFSET ( 9, 0, .AHEAD. ) ;
#243 = APPROVAL_STATUS ( 'not_yet_approved' ) ;
#244 = DESIGN_CONTEXT ( 'detailed design', #221, 'design' ) ;
#245 = CARTESIAN_POINT ( 'NONE',  ( 8.500000000000000000, 1.040949779275250140E-15, 0.000000000000000000 ) ) ;
#246 = CC_DESIGN_PERSON_AND_ORGANIZATION_ASSIGNMENT ( #11, #189, ( #206 ) ) ;
#247 = DATE_AND_TIME ( #79, #150 ) ;
#248 = CARTESIAN_POINT ( 'NONE',  ( -25.00000000000000000, 0.000000000000000000, 0.000000000000000000 ) ) ;
#249 = EDGE_LOOP ( 'NONE', ( #63, #59 ) ) ;
ENDSEC;
END-ISO-10303-21;
