ISO-10303-21;
HEADER;
FILE_DESCRIPTION (( 'STEP AP203' ),
    '1' );
FILE_NAME ('bj300-08032.STEP',
    '2021-10-24T23:50:54',
    ( '' ),
    ( '' ),
    'SwSTEP 2.0',
    'SolidWorks 2020',
    '' );
FILE_SCHEMA (( 'CONFIG_CONTROL_DESIGN' ));
ENDSEC;

DATA;
#1 = ORIENTED_EDGE ( 'NONE', *, *, #85, .F. ) ;
#2 = CARTESIAN_POINT ( 'NONE',  ( 7.000000000000000000, 0.000000000000000000, 7.000000000000000000 ) ) ;
#3 = DIRECTION ( 'NONE',  ( 0.000000000000000000, 0.000000000000000000, 1.000000000000000000 ) ) ;
#4 = SECURITY_CLASSIFICATION ( '', '', #245 ) ;
#5 = ADVANCED_FACE ( 'NONE', ( #327, #165 ), #44, .F. ) ;
#6 = CARTESIAN_POINT ( 'NONE',  ( -4.500000000000000000, 5.510910596163088569E-16, 0.000000000000000000 ) ) ;
#7 = PLANE ( 'NONE',  #193 ) ;
#8 = CC_DESIGN_PERSON_AND_ORGANIZATION_ASSIGNMENT ( #137, #177, ( #183 ) ) ;
#9 = CARTESIAN_POINT ( 'NONE',  ( 0.000000000000000000, 0.000000000000000000, 0.000000000000000000 ) ) ;
#10 = ADVANCED_FACE ( 'NONE', ( #102 ), #194, .F. ) ;
#11 = DATE_AND_TIME ( #266, #149 ) ;
#12 = ORIENTED_EDGE ( 'NONE', *, *, #295, .F. ) ;
#13 = PERSON_AND_ORGANIZATION ( #229, #210 ) ;
#14 = ORIENTED_EDGE ( 'NONE', *, *, #318, .T. ) ;
#15 = CC_DESIGN_APPROVAL ( #30, ( #75 ) ) ;
#16 = AXIS2_PLACEMENT_3D ( 'NONE', #169, #281, #223 ) ;
#17 = DIRECTION ( 'NONE',  ( 1.000000000000000000, 0.000000000000000000, 0.000000000000000000 ) ) ;
#18 = VERTEX_POINT ( 'NONE', #70 ) ;
#19 = ORIENTED_EDGE ( 'NONE', *, *, #80, .F. ) ;
#20 = AXIS2_PLACEMENT_3D ( 'NONE', #24, #147, #50 ) ;
#21 = ORIENTED_EDGE ( 'NONE', *, *, #123, .F. ) ;
#22 = CYLINDRICAL_SURFACE ( 'NONE', #251, 4.500000000000000000 ) ;
#23 = DIRECTION ( 'NONE',  ( 1.000000000000000000, 0.000000000000000000, 0.000000000000000000 ) ) ;
#24 = CARTESIAN_POINT ( 'NONE',  ( 0.000000000000000000, 0.000000000000000000, 0.000000000000000000 ) ) ;
#25 = EDGE_CURVE ( 'NONE', #244, #325, #45, .T. ) ;
#26 = LINE ( 'NONE', #129, #178 ) ;
#27 = CLOSED_SHELL ( 'NONE', ( #272, #220, #62, #219, #286, #5, #278, #326, #10 ) ) ;
#28 = EDGE_CURVE ( 'NONE', #67, #167, #301, .T. ) ;
#29 = LINE ( 'NONE', #308, #198 ) ;
#30 = APPROVAL ( #235, 'UNSPECIFIED' ) ;
#31 = FACE_OUTER_BOUND ( 'NONE', #161, .T. ) ;
#32 = EDGE_CURVE ( 'NONE', #67, #249, #243, .T. ) ;
#33 = VERTEX_POINT ( 'NONE', #48 ) ;
#34 = CALENDAR_DATE ( 2021, 25, 10 ) ;
#35 = ORIENTED_EDGE ( 'NONE', *, *, #25, .F. ) ;
#36 = APPROVAL_DATE_TIME ( #83, #157 ) ;
#37 =( NAMED_UNIT ( * ) PLANE_ANGLE_UNIT ( ) SI_UNIT ( $, .RADIAN. ) );
#38 = EDGE_LOOP ( 'NONE', ( #268, #297 ) ) ;
#39 = PERSON_AND_ORGANIZATION_ROLE ( 'creator' ) ;
#40 = FACE_BOUND ( 'NONE', #292, .T. ) ;
#41 = ORIENTED_EDGE ( 'NONE', *, *, #304, .F. ) ;
#42 = PRODUCT_DEFINITION_SHAPE ( 'NONE', 'NONE',  #75 ) ;
#43 = DIRECTION ( 'NONE',  ( 1.000000000000000000, 0.000000000000000000, 0.000000000000000000 ) ) ;
#44 = PLANE ( 'NONE',  #107 ) ;
#45 = LINE ( 'NONE', #166, #218 ) ;
#46 = LOCAL_TIME ( 8, 50, 54.00000000000000000, #181 ) ;
#47 = VERTEX_POINT ( 'NONE', #329 ) ;
#48 = CARTESIAN_POINT ( 'NONE',  ( -12.50000000000000000, 1.530808498934191521E-15, 32.00000000000000000 ) ) ;
#49 = CARTESIAN_POINT ( 'NONE',  ( 7.000000000000000000, 0.000000000000000000, 40.00000000000000000 ) ) ;
#50 = DIRECTION ( 'NONE',  ( 1.000000000000000000, 0.000000000000000000, 0.000000000000000000 ) ) ;
#51 = DIRECTION ( 'NONE',  ( 0.000000000000000000, 0.000000000000000000, 1.000000000000000000 ) ) ;
#52 = VECTOR ( 'NONE', #313, 1000.000000000000000 ) ;
#53 = DIRECTION ( 'NONE',  ( 0.000000000000000000, 0.000000000000000000, 1.000000000000000000 ) ) ;
#54 = EDGE_CURVE ( 'NONE', #167, #180, #154, .T. ) ;
#55 = DIRECTION ( 'NONE',  ( 0.000000000000000000, 0.000000000000000000, 1.000000000000000000 ) ) ;
#56 = CIRCLE ( 'NONE', #128, 12.50000000000000000 ) ;
#57 = DIRECTION ( 'NONE',  ( -1.000000000000000000, 0.000000000000000000, 0.000000000000000000 ) ) ;
#58 = EDGE_LOOP ( 'NONE', ( #217, #208 ) ) ;
#59 = LOCAL_TIME ( 8, 50, 54.00000000000000000, #175 ) ;
#60 = DIRECTION ( 'NONE',  ( 0.000000000000000000, 0.000000000000000000, 1.000000000000000000 ) ) ;
#61 = VERTEX_POINT ( 'NONE', #303 ) ;
#62 = ADVANCED_FACE ( 'NONE', ( #255 ), #22, .F. ) ;
#63 = CARTESIAN_POINT ( 'NONE',  ( 0.000000000000000000, 0.000000000000000000, 0.000000000000000000 ) ) ;
#64 = ORIENTED_EDGE ( 'NONE', *, *, #125, .T. ) ;
#65 = CIRCLE ( 'NONE', #276, 4.500000000000000000 ) ;
#66 = LINE ( 'NONE', #182, #52 ) ;
#67 = VERTEX_POINT ( 'NONE', #104 ) ;
#68 = LOCAL_TIME ( 8, 50, 54.00000000000000000, #119 ) ;
#69 = ORIENTED_EDGE ( 'NONE', *, *, #115, .T. ) ;
#70 = CARTESIAN_POINT ( 'NONE',  ( 12.50000000000000000, 0.000000000000000000, 0.000000000000000000 ) ) ;
#71 = AXIS2_PLACEMENT_3D ( 'NONE', #86, #174, #116 ) ;
#72 = APPROVAL_PERSON_ORGANIZATION ( #205, #157, #88 ) ;
#73 = DIRECTION ( 'NONE',  ( 0.000000000000000000, 0.000000000000000000, 1.000000000000000000 ) ) ;
#74 = ORIENTED_EDGE ( 'NONE', *, *, #135, .T. ) ;
#75 = PRODUCT_DEFINITION ( 'UNKNOWN', '', #234, #196 ) ;
#76 = DIRECTION ( 'NONE',  ( 0.000000000000000000, 0.000000000000000000, -1.000000000000000000 ) ) ;
#77 = AXIS2_PLACEMENT_3D ( 'NONE', #195, #252, #23 ) ;
#78 = DIRECTION ( 'NONE',  ( 0.000000000000000000, 0.000000000000000000, 1.000000000000000000 ) ) ;
#79 = DIRECTION ( 'NONE',  ( 0.000000000000000000, 0.000000000000000000, 1.000000000000000000 ) ) ;
#80 = EDGE_CURVE ( 'NONE', #244, #92, #294, .T. ) ;
#81 = CARTESIAN_POINT ( 'NONE',  ( 0.000000000000000000, 0.000000000000000000, 40.00000000000000000 ) ) ;
#82 = VECTOR ( 'NONE', #78, 1000.000000000000000 ) ;
#83 = DATE_AND_TIME ( #236, #59 ) ;
#84 = DIRECTION ( 'NONE',  ( 0.000000000000000000, 0.000000000000000000, 1.000000000000000000 ) ) ;
#85 = EDGE_CURVE ( 'NONE', #47, #18, #132, .T. ) ;
#86 = CARTESIAN_POINT ( 'NONE',  ( 0.000000000000000000, 0.000000000000000000, 32.00000000000000000 ) ) ;
#87 = ORIENTED_EDGE ( 'NONE', *, *, #125, .F. ) ;
#88 = APPROVAL_ROLE ( '' ) ;
#89 = APPLICATION_PROTOCOL_DEFINITION ( 'international standard', 'config_control_design', 1994, #240 ) ;
#90 = ORIENTED_EDGE ( 'NONE', *, *, #153, .F. ) ;
#91 = CC_DESIGN_APPROVAL ( #157, ( #4 ) ) ;
#92 = VERTEX_POINT ( 'NONE', #171 ) ;
#93 = APPLICATION_CONTEXT ( 'configuration controlled 3d designs of mechanical parts and assemblies' ) ;
#94 = EDGE_CURVE ( 'NONE', #249, #180, #29, .T. ) ;
#95 = DATE_AND_TIME ( #323, #68 ) ;
#96 = ORIENTED_EDGE ( 'NONE', *, *, #94, .T. ) ;
#97 = CC_DESIGN_SECURITY_CLASSIFICATION ( #4, ( #234 ) ) ;
#98 = DIRECTION ( 'NONE',  ( 1.000000000000000000, 0.000000000000000000, 0.000000000000000000 ) ) ;
#99 = UNCERTAINTY_MEASURE_WITH_UNIT (LENGTH_MEASURE( 1.000000000000000082E-05 ), #262, 'distance_accuracy_value', 'NONE');
#100 = DIRECTION ( 'NONE',  ( 0.000000000000000000, 0.000000000000000000, 1.000000000000000000 ) ) ;
#101 = CIRCLE ( 'NONE', #328, 12.50000000000000000 ) ;
#102 = FACE_OUTER_BOUND ( 'NONE', #114, .T. ) ;
#103 = CIRCLE ( 'NONE', #71, 7.000000000000000000 ) ;
#104 = CARTESIAN_POINT ( 'NONE',  ( 7.000000000000000000, 0.000000000000000000, 7.000000000000000000 ) ) ;
#105 = DIRECTION ( 'NONE',  ( 0.000000000000000000, 0.000000000000000000, 1.000000000000000000 ) ) ;
#106 = CYLINDRICAL_SURFACE ( 'NONE', #283, 12.50000000000000000 ) ;
#107 = AXIS2_PLACEMENT_3D ( 'NONE', #121, #298, #98 ) ;
#108 = DIRECTION ( 'NONE',  ( 1.000000000000000000, 0.000000000000000000, 0.000000000000000000 ) ) ;
#109 = CARTESIAN_POINT ( 'NONE',  ( -7.000000000000000000, 8.572527594031473190E-16, 7.000000000000000000 ) ) ;
#110 = APPROVAL_STATUS ( 'not_yet_approved' ) ;
#111 = DIRECTION ( 'NONE',  ( -1.000000000000000000, 0.000000000000000000, 0.000000000000000000 ) ) ;
#112 = DIRECTION ( 'NONE',  ( 0.000000000000000000, 0.000000000000000000, 1.000000000000000000 ) ) ;
#113 = CARTESIAN_POINT ( 'NONE',  ( 0.000000000000000000, 0.000000000000000000, 0.000000000000000000 ) ) ;
#114 = EDGE_LOOP ( 'NONE', ( #118, #238, #146, #291 ) ) ;
#115 = EDGE_CURVE ( 'NONE', #47, #33, #287, .T. ) ;
#116 = DIRECTION ( 'NONE',  ( 1.000000000000000000, 0.000000000000000000, 0.000000000000000000 ) ) ;
#117 = APPLICATION_PROTOCOL_DEFINITION ( 'international standard', 'config_control_design', 1994, #93 ) ;
#118 = ORIENTED_EDGE ( 'NONE', *, *, #94, .F. ) ;
#119 = COORDINATED_UNIVERSAL_TIME_OFFSET ( 9, 0, .AHEAD. ) ;
#120 = ORIENTED_EDGE ( 'NONE', *, *, #135, .F. ) ;
#121 = CARTESIAN_POINT ( 'NONE',  ( 4.500000000000000000, 0.000000000000000000, 0.000000000000000000 ) ) ;
#122 = CARTESIAN_POINT ( 'NONE',  ( 0.000000000000000000, 0.000000000000000000, 40.00000000000000000 ) ) ;
#123 = EDGE_CURVE ( 'NONE', #249, #67, #267, .T. ) ;
#124 = ORIENTED_EDGE ( 'NONE', *, *, #304, .T. ) ;
#125 = EDGE_CURVE ( 'NONE', #92, #61, #26, .T. ) ;
#126 = FACE_BOUND ( 'NONE', #273, .T. ) ;
#127 = DIRECTION ( 'NONE',  ( 0.000000000000000000, 0.000000000000000000, 1.000000000000000000 ) ) ;
#128 = AXIS2_PLACEMENT_3D ( 'NONE', #9, #112, #168 ) ;
#129 = CARTESIAN_POINT ( 'NONE',  ( 4.500000000000000000, 0.000000000000000000, 40.00000000000000000 ) ) ;
#130 = DIRECTION ( 'NONE',  ( 1.000000000000000000, 0.000000000000000000, 0.000000000000000000 ) ) ;
#131 = DIRECTION ( 'NONE',  ( 1.000000000000000000, 0.000000000000000000, 0.000000000000000000 ) ) ;
#132 = CIRCLE ( 'NONE', #230, 12.50000000000000000 ) ;
#133 = DATE_AND_TIME ( #34, #232 ) ;
#134 = ORIENTED_EDGE ( 'NONE', *, *, #214, .F. ) ;
#135 = EDGE_CURVE ( 'NONE', #18, #47, #56, .T. ) ;
#136 = PERSON_AND_ORGANIZATION ( #229, #210 ) ;
#137 = PERSON_AND_ORGANIZATION ( #229, #210 ) ;
#138 = ORIENTED_EDGE ( 'NONE', *, *, #170, .T. ) ;
#139 = VECTOR ( 'NONE', #279, 1000.000000000000000 ) ;
#140 =( GEOMETRIC_REPRESENTATION_CONTEXT ( 3 ) GLOBAL_UNCERTAINTY_ASSIGNED_CONTEXT ( ( #99 ) ) GLOBAL_UNIT_ASSIGNED_CONTEXT ( ( #262, #37, #213 ) ) REPRESENTATION_CONTEXT ( 'NONE', 'WORKASPACE' ) );
#141 = ORIENTED_EDGE ( 'NONE', *, *, #85, .T. ) ;
#142 = ORIENTED_EDGE ( 'NONE', *, *, #54, .F. ) ;
#143 = ADVANCED_BREP_SHAPE_REPRESENTATION ( 'bj300-08032', ( #190, #316 ), #140 ) ;
#144 = DIRECTION ( 'NONE',  ( 1.000000000000000000, 0.000000000000000000, 0.000000000000000000 ) ) ;
#145 = AXIS2_PLACEMENT_3D ( 'NONE', #307, #51, #150 ) ;
#146 = ORIENTED_EDGE ( 'NONE', *, *, #28, .T. ) ;
#147 = DIRECTION ( 'NONE',  ( 0.000000000000000000, 0.000000000000000000, 1.000000000000000000 ) ) ;
#148 = DIRECTION ( 'NONE',  ( 0.000000000000000000, 0.000000000000000000, 1.000000000000000000 ) ) ;
#149 = LOCAL_TIME ( 8, 50, 54.00000000000000000, #160 ) ;
#150 = DIRECTION ( 'NONE',  ( 1.000000000000000000, 0.000000000000000000, 0.000000000000000000 ) ) ;
#151 = CARTESIAN_POINT ( 'NONE',  ( -12.50000000000000000, 1.530808498934191521E-15, 40.00000000000000000 ) ) ;
#152 = CALENDAR_DATE ( 2021, 25, 10 ) ;
#153 = EDGE_CURVE ( 'NONE', #325, #61, #211, .T. ) ;
#154 = CIRCLE ( 'NONE', #77, 7.000000000000000000 ) ;
#155 = COORDINATED_UNIVERSAL_TIME_OFFSET ( 9, 0, .AHEAD. ) ;
#156 = ORIENTED_EDGE ( 'NONE', *, *, #115, .F. ) ;
#157 = APPROVAL ( #110, 'UNSPECIFIED' ) ;
#158 = FACE_OUTER_BOUND ( 'NONE', #58, .T. ) ;
#159 = AXIS2_PLACEMENT_3D ( 'NONE', #227, #231, #130 ) ;
#160 = COORDINATED_UNIVERSAL_TIME_OFFSET ( 9, 0, .AHEAD. ) ;
#161 = EDGE_LOOP ( 'NONE', ( #74, #69, #247, #41 ) ) ;
#162 = CC_DESIGN_DATE_AND_TIME_ASSIGNMENT ( #261, #265, ( #4 ) ) ;
#163 = EDGE_LOOP ( 'NONE', ( #315, #221 ) ) ;
#164 = CARTESIAN_POINT ( 'NONE',  ( 0.000000000000000000, 0.000000000000000000, 40.00000000000000000 ) ) ;
#165 = FACE_BOUND ( 'NONE', #38, .T. ) ;
#166 = CARTESIAN_POINT ( 'NONE',  ( -4.500000000000000000, 5.510910596163088569E-16, 40.00000000000000000 ) ) ;
#167 = VERTEX_POINT ( 'NONE', #260 ) ;
#168 = DIRECTION ( 'NONE',  ( 1.000000000000000000, 0.000000000000000000, 0.000000000000000000 ) ) ;
#169 = CARTESIAN_POINT ( 'NONE',  ( 0.000000000000000000, 0.000000000000000000, 32.00000000000000000 ) ) ;
#170 = EDGE_CURVE ( 'NONE', #61, #325, #300, .T. ) ;
#171 = CARTESIAN_POINT ( 'NONE',  ( 4.500000000000000000, 0.000000000000000000, 0.000000000000000000 ) ) ;
#172 = PERSON_AND_ORGANIZATION ( #229, #210 ) ;
#173 = CYLINDRICAL_SURFACE ( 'NONE', #309, 12.50000000000000000 ) ;
#174 = DIRECTION ( 'NONE',  ( 0.000000000000000000, 0.000000000000000000, 1.000000000000000000 ) ) ;
#175 = COORDINATED_UNIVERSAL_TIME_OFFSET ( 9, 0, .AHEAD. ) ;
#176 = CC_DESIGN_PERSON_AND_ORGANIZATION_ASSIGNMENT ( #136, #228, ( #234 ) ) ;
#177 = PERSON_AND_ORGANIZATION_ROLE ( 'design_owner' ) ;
#178 = VECTOR ( 'NONE', #148, 1000.000000000000000 ) ;
#179 = APPROVAL_ROLE ( '' ) ;
#180 = VERTEX_POINT ( 'NONE', #259 ) ;
#181 = COORDINATED_UNIVERSAL_TIME_OFFSET ( 9, 0, .AHEAD. ) ;
#182 = CARTESIAN_POINT ( 'NONE',  ( 12.50000000000000000, 0.000000000000000000, 40.00000000000000000 ) ) ;
#183 = PRODUCT ( 'bj300-08032', 'bj300-08032', '', ( #215 ) ) ;
#184 = DIRECTION ( 'NONE',  ( 0.000000000000000000, 0.000000000000000000, 1.000000000000000000 ) ) ;
#185 = ORIENTED_EDGE ( 'NONE', *, *, #318, .F. ) ;
#186 = AXIS2_PLACEMENT_3D ( 'NONE', #320, #60, #17 ) ;
#187 = CC_DESIGN_PERSON_AND_ORGANIZATION_ASSIGNMENT ( #172, #310, ( #4 ) ) ;
#188 = APPROVAL_DATE_TIME ( #95, #254 ) ;
#189 = VERTEX_POINT ( 'NONE', #201 ) ;
#190 = MANIFOLD_SOLID_BREP ( 'Imported1', #27 ) ;
#191 = ORIENTED_EDGE ( 'NONE', *, *, #28, .F. ) ;
#192 = DIRECTION ( 'NONE',  ( 1.000000000000000000, 0.000000000000000000, 0.000000000000000000 ) ) ;
#193 = AXIS2_PLACEMENT_3D ( 'NONE', #2, #76, #111 ) ;
#194 = CYLINDRICAL_SURFACE ( 'NONE', #203, 7.000000000000000000 ) ;
#195 = CARTESIAN_POINT ( 'NONE',  ( 0.000000000000000000, 0.000000000000000000, 32.00000000000000000 ) ) ;
#196 = DESIGN_CONTEXT ( 'detailed design', #240, 'design' ) ;
#197 = ORIENTED_EDGE ( 'NONE', *, *, #170, .F. ) ;
#198 = VECTOR ( 'NONE', #127, 1000.000000000000000 ) ;
#199 = DIRECTION ( 'NONE',  ( 0.000000000000000000, 0.000000000000000000, 1.000000000000000000 ) ) ;
#200 = FACE_OUTER_BOUND ( 'NONE', #289, .T. ) ;
#201 = CARTESIAN_POINT ( 'NONE',  ( 12.50000000000000000, 0.000000000000000000, 32.00000000000000000 ) ) ;
#202 = CC_DESIGN_PERSON_AND_ORGANIZATION_ASSIGNMENT ( #241, #288, ( #75 ) ) ;
#203 = AXIS2_PLACEMENT_3D ( 'NONE', #164, #73, #222 ) ;
#204 = CARTESIAN_POINT ( 'NONE',  ( 0.000000000000000000, 0.000000000000000000, 32.00000000000000000 ) ) ;
#205 = PERSON_AND_ORGANIZATION ( #229, #210 ) ;
#206 = CYLINDRICAL_SURFACE ( 'NONE', #186, 4.500000000000000000 ) ;
#207 = APPROVAL_DATE_TIME ( #11, #30 ) ;
#208 = ORIENTED_EDGE ( 'NONE', *, *, #214, .T. ) ;
#209 = APPROVAL_STATUS ( 'not_yet_approved' ) ;
#210 = ORGANIZATION ( 'UNSPECIFIED', 'UNSPECIFIED', '' ) ;
#211 = CIRCLE ( 'NONE', #224, 4.500000000000000000 ) ;
#212 = ORIENTED_EDGE ( 'NONE', *, *, #153, .T. ) ;
#213 =( NAMED_UNIT ( * ) SI_UNIT ( $, .STERADIAN. ) SOLID_ANGLE_UNIT ( ) );
#214 = EDGE_CURVE ( 'NONE', #33, #189, #317, .T. ) ;
#215 = MECHANICAL_CONTEXT ( 'NONE', #93, 'mechanical' ) ;
#216 = PERSON_AND_ORGANIZATION ( #229, #210 ) ;
#217 = ORIENTED_EDGE ( 'NONE', *, *, #270, .T. ) ;
#218 = VECTOR ( 'NONE', #253, 1000.000000000000000 ) ;
#219 = ADVANCED_FACE ( 'NONE', ( #126, #225 ), #7, .F. ) ;
#220 = ADVANCED_FACE ( 'NONE', ( #31 ), #106, .T. ) ;
#221 = ORIENTED_EDGE ( 'NONE', *, *, #123, .T. ) ;
#222 = DIRECTION ( 'NONE',  ( 1.000000000000000000, 0.000000000000000000, 0.000000000000000000 ) ) ;
#223 = DIRECTION ( 'NONE',  ( 1.000000000000000000, 0.000000000000000000, 0.000000000000000000 ) ) ;
#224 = AXIS2_PLACEMENT_3D ( 'NONE', #280, #305, #226 ) ;
#225 = FACE_OUTER_BOUND ( 'NONE', #163, .T. ) ;
#226 = DIRECTION ( 'NONE',  ( 1.000000000000000000, 0.000000000000000000, 0.000000000000000000 ) ) ;
#227 = CARTESIAN_POINT ( 'NONE',  ( 0.000000000000000000, 0.000000000000000000, 7.000000000000000000 ) ) ;
#228 = PERSON_AND_ORGANIZATION_ROLE ( 'design_supplier' ) ;
#229 = PERSON ( 'UNSPECIFIED', 'UNSPECIFIED', 'UNSPECIFIED', ('UNSPECIFIED'), ('UNSPECIFIED'), ('UNSPECIFIED') ) ;
#230 = AXIS2_PLACEMENT_3D ( 'NONE', #306, #79, #131 ) ;
#231 = DIRECTION ( 'NONE',  ( 0.000000000000000000, 0.000000000000000000, 1.000000000000000000 ) ) ;
#232 = LOCAL_TIME ( 8, 50, 54.00000000000000000, #155 ) ;
#233 = CC_DESIGN_DATE_AND_TIME_ASSIGNMENT ( #133, #237, ( #75 ) ) ;
#234 = PRODUCT_DEFINITION_FORMATION_WITH_SPECIFIED_SOURCE ( 'ANY', '', #183, .NOT_KNOWN. ) ;
#235 = APPROVAL_STATUS ( 'not_yet_approved' ) ;
#236 = CALENDAR_DATE ( 2021, 25, 10 ) ;
#237 = DATE_TIME_ROLE ( 'creation_date' ) ;
#238 = ORIENTED_EDGE ( 'NONE', *, *, #32, .F. ) ;
#239 = SHAPE_DEFINITION_REPRESENTATION ( #42, #143 ) ;
#240 = APPLICATION_CONTEXT ( 'configuration controlled 3d designs of mechanical parts and assemblies' ) ;
#241 = PERSON_AND_ORGANIZATION ( #229, #210 ) ;
#242 = AXIS2_PLACEMENT_3D ( 'NONE', #274, #105, #144 ) ;
#243 = CIRCLE ( 'NONE', #242, 7.000000000000000000 ) ;
#244 = VERTEX_POINT ( 'NONE', #6 ) ;
#245 = SECURITY_CLASSIFICATION_LEVEL ( 'unclassified' ) ;
#246 = FACE_OUTER_BOUND ( 'NONE', #271, .T. ) ;
#247 = ORIENTED_EDGE ( 'NONE', *, *, #270, .F. ) ;
#248 = CARTESIAN_POINT ( 'NONE',  ( -4.500000000000000000, 5.510910596163088569E-16, 7.000000000000000000 ) ) ;
#249 = VERTEX_POINT ( 'NONE', #109 ) ;
#250 = EDGE_LOOP ( 'NONE', ( #156, #141, #124, #134 ) ) ;
#251 = AXIS2_PLACEMENT_3D ( 'NONE', #122, #100, #192 ) ;
#252 = DIRECTION ( 'NONE',  ( 0.000000000000000000, 0.000000000000000000, 1.000000000000000000 ) ) ;
#253 = DIRECTION ( 'NONE',  ( 0.000000000000000000, 0.000000000000000000, 1.000000000000000000 ) ) ;
#254 = APPROVAL ( #209, 'UNSPECIFIED' ) ;
#255 = FACE_OUTER_BOUND ( 'NONE', #324, .T. ) ;
#256 = DIRECTION ( 'NONE',  ( 1.000000000000000000, 0.000000000000000000, 0.000000000000000000 ) ) ;
#257 = CARTESIAN_POINT ( 'NONE',  ( 0.000000000000000000, 0.000000000000000000, 7.000000000000000000 ) ) ;
#258 = FACE_OUTER_BOUND ( 'NONE', #250, .T. ) ;
#259 = CARTESIAN_POINT ( 'NONE',  ( -7.000000000000000000, 8.572527594031473190E-16, 32.00000000000000000 ) ) ;
#260 = CARTESIAN_POINT ( 'NONE',  ( 7.000000000000000000, 0.000000000000000000, 32.00000000000000000 ) ) ;
#261 = DATE_AND_TIME ( #152, #46 ) ;
#262 =( LENGTH_UNIT ( ) NAMED_UNIT ( * ) SI_UNIT ( .MILLI., .METRE. ) );
#263 = PRODUCT_RELATED_PRODUCT_CATEGORY ( 'detail', '', ( #183 ) ) ;
#264 = CARTESIAN_POINT ( 'NONE',  ( 12.50000000000000000, 0.000000000000000000, 32.00000000000000000 ) ) ;
#265 = DATE_TIME_ROLE ( 'classification_date' ) ;
#266 = CALENDAR_DATE ( 2021, 25, 10 ) ;
#267 = CIRCLE ( 'NONE', #159, 7.000000000000000000 ) ;
#268 = ORIENTED_EDGE ( 'NONE', *, *, #295, .T. ) ;
#269 = DIRECTION ( 'NONE',  ( 0.000000000000000000, 0.000000000000000000, -1.000000000000000000 ) ) ;
#270 = EDGE_CURVE ( 'NONE', #189, #33, #101, .T. ) ;
#271 = EDGE_LOOP ( 'NONE', ( #35, #12, #64, #138 ) ) ;
#272 = ADVANCED_FACE ( 'NONE', ( #200 ), #311, .F. ) ;
#273 = EDGE_LOOP ( 'NONE', ( #197, #90 ) ) ;
#274 = CARTESIAN_POINT ( 'NONE',  ( 0.000000000000000000, 0.000000000000000000, 7.000000000000000000 ) ) ;
#275 = AXIS2_PLACEMENT_3D ( 'NONE', #257, #84, #256 ) ;
#276 = AXIS2_PLACEMENT_3D ( 'NONE', #63, #184, #319 ) ;
#277 = APPROVAL_PERSON_ORGANIZATION ( #13, #254, #296 ) ;
#278 = ADVANCED_FACE ( 'NONE', ( #258 ), #173, .T. ) ;
#279 = DIRECTION ( 'NONE',  ( 0.000000000000000000, 0.000000000000000000, 1.000000000000000000 ) ) ;
#280 = CARTESIAN_POINT ( 'NONE',  ( 0.000000000000000000, 0.000000000000000000, 7.000000000000000000 ) ) ;
#281 = DIRECTION ( 'NONE',  ( 0.000000000000000000, 0.000000000000000000, 1.000000000000000000 ) ) ;
#282 = CARTESIAN_POINT ( 'NONE',  ( 0.000000000000000000, 0.000000000000000000, 40.00000000000000000 ) ) ;
#283 = AXIS2_PLACEMENT_3D ( 'NONE', #282, #199, #285 ) ;
#284 = AXIS2_PLACEMENT_3D ( 'NONE', #264, #269, #57 ) ;
#285 = DIRECTION ( 'NONE',  ( 1.000000000000000000, 0.000000000000000000, 0.000000000000000000 ) ) ;
#286 = ADVANCED_FACE ( 'NONE', ( #246 ), #206, .F. ) ;
#287 = LINE ( 'NONE', #151, #82 ) ;
#288 = PERSON_AND_ORGANIZATION_ROLE ( 'creator' ) ;
#289 = EDGE_LOOP ( 'NONE', ( #21, #96, #14, #191 ) ) ;
#290 = DIRECTION ( 'NONE',  ( 1.000000000000000000, 0.000000000000000000, 0.000000000000000000 ) ) ;
#291 = ORIENTED_EDGE ( 'NONE', *, *, #54, .T. ) ;
#292 = EDGE_LOOP ( 'NONE', ( #142, #185 ) ) ;
#293 = PERSON_AND_ORGANIZATION ( #229, #210 ) ;
#294 = CIRCLE ( 'NONE', #20, 4.500000000000000000 ) ;
#295 = EDGE_CURVE ( 'NONE', #92, #244, #65, .T. ) ;
#296 = APPROVAL_ROLE ( '' ) ;
#297 = ORIENTED_EDGE ( 'NONE', *, *, #80, .T. ) ;
#298 = DIRECTION ( 'NONE',  ( 0.000000000000000000, 0.000000000000000000, 1.000000000000000000 ) ) ;
#299 = APPROVAL_PERSON_ORGANIZATION ( #293, #30, #179 ) ;
#300 = CIRCLE ( 'NONE', #275, 4.500000000000000000 ) ;
#301 = LINE ( 'NONE', #49, #139 ) ;
#302 = CC_DESIGN_PERSON_AND_ORGANIZATION_ASSIGNMENT ( #216, #39, ( #234 ) ) ;
#303 = CARTESIAN_POINT ( 'NONE',  ( 4.500000000000000000, 0.000000000000000000, 7.000000000000000000 ) ) ;
#304 = EDGE_CURVE ( 'NONE', #18, #189, #66, .T. ) ;
#305 = DIRECTION ( 'NONE',  ( 0.000000000000000000, 0.000000000000000000, 1.000000000000000000 ) ) ;
#306 = CARTESIAN_POINT ( 'NONE',  ( 0.000000000000000000, 0.000000000000000000, 0.000000000000000000 ) ) ;
#307 = CARTESIAN_POINT ( 'NONE',  ( 0.000000000000000000, 0.000000000000000000, 40.00000000000000000 ) ) ;
#308 = CARTESIAN_POINT ( 'NONE',  ( -7.000000000000000000, 8.572527594031473190E-16, 40.00000000000000000 ) ) ;
#309 = AXIS2_PLACEMENT_3D ( 'NONE', #81, #53, #290 ) ;
#310 = PERSON_AND_ORGANIZATION_ROLE ( 'classification_officer' ) ;
#311 = CYLINDRICAL_SURFACE ( 'NONE', #145, 7.000000000000000000 ) ;
#312 = CC_DESIGN_APPROVAL ( #254, ( #234 ) ) ;
#313 = DIRECTION ( 'NONE',  ( 0.000000000000000000, 0.000000000000000000, 1.000000000000000000 ) ) ;
#314 = PLANE ( 'NONE',  #284 ) ;
#315 = ORIENTED_EDGE ( 'NONE', *, *, #32, .T. ) ;
#316 = AXIS2_PLACEMENT_3D ( 'NONE', #113, #55, #43 ) ;
#317 = CIRCLE ( 'NONE', #16, 12.50000000000000000 ) ;
#318 = EDGE_CURVE ( 'NONE', #180, #167, #103, .T. ) ;
#319 = DIRECTION ( 'NONE',  ( 1.000000000000000000, 0.000000000000000000, 0.000000000000000000 ) ) ;
#320 = CARTESIAN_POINT ( 'NONE',  ( 0.000000000000000000, 0.000000000000000000, 40.00000000000000000 ) ) ;
#321 = EDGE_LOOP ( 'NONE', ( #120, #1 ) ) ;
#322 = ORIENTED_EDGE ( 'NONE', *, *, #25, .T. ) ;
#323 = CALENDAR_DATE ( 2021, 25, 10 ) ;
#324 = EDGE_LOOP ( 'NONE', ( #19, #322, #212, #87 ) ) ;
#325 = VERTEX_POINT ( 'NONE', #248 ) ;
#326 = ADVANCED_FACE ( 'NONE', ( #40, #158 ), #314, .F. ) ;
#327 = FACE_OUTER_BOUND ( 'NONE', #321, .T. ) ;
#328 = AXIS2_PLACEMENT_3D ( 'NONE', #204, #3, #108 ) ;
#329 = CARTESIAN_POINT ( 'NONE',  ( -12.50000000000000000, 1.530808498934191521E-15, 0.000000000000000000 ) ) ;
ENDSEC;
END-ISO-10303-21;
