ISO-10303-21;
HEADER;
FILE_DESCRIPTION (( 'STEP AP203' ),
    '1' );
FILE_NAME ('bj712-22032.STEP',
    '2021-10-24T23:59:04',
    ( '' ),
    ( '' ),
    'SwSTEP 2.0',
    'SolidWorks 2020',
    '' );
FILE_SCHEMA (( 'CONFIG_CONTROL_DESIGN' ));
ENDSEC;

DATA;
#1 = DIRECTION ( 'NONE',  ( 1.000000000000000000, 0.000000000000000000, 0.000000000000000000 ) ) ;
#2 = ORIENTED_EDGE ( 'NONE', *, *, #179, .T. ) ;
#3 = ORIENTED_EDGE ( 'NONE', *, *, #343, .F. ) ;
#4 = DIRECTION ( 'NONE',  ( 0.000000000000000000, 0.000000000000000000, 1.000000000000000000 ) ) ;
#5 = ORIENTED_EDGE ( 'NONE', *, *, #214, .T. ) ;
#6 = EDGE_CURVE ( 'NONE', #297, #138, #355, .T. ) ;
#7 = DIRECTION ( 'NONE',  ( 1.000000000000000000, 0.000000000000000000, 0.000000000000000000 ) ) ;
#8 = CARTESIAN_POINT ( 'NONE',  ( 0.000000000000000000, 0.000000000000000000, 5.500000000000000000 ) ) ;
#9 = ORIENTED_EDGE ( 'NONE', *, *, #275, .T. ) ;
#10 = AXIS2_PLACEMENT_3D ( 'NONE', #175, #200, #312 ) ;
#11 = FACE_OUTER_BOUND ( 'NONE', #29, .T. ) ;
#12 = ADVANCED_FACE ( 'NONE', ( #381, #384 ), #81, .T. ) ;
#13 =( LENGTH_UNIT ( ) NAMED_UNIT ( * ) SI_UNIT ( .MILLI., .METRE. ) );
#14 = AXIS2_PLACEMENT_3D ( 'NONE', #187, #86, #212 ) ;
#15 = PERSON_AND_ORGANIZATION_ROLE ( 'design_supplier' ) ;
#16 = LINE ( 'NONE', #292, #152 ) ;
#17 = AXIS2_PLACEMENT_3D ( 'NONE', #389, #352, #84 ) ;
#18 = CALENDAR_DATE ( 2021, 25, 10 ) ;
#19 = LOCAL_TIME ( 8, 59, 4.000000000000000000, #282 ) ;
#20 = DIRECTION ( 'NONE',  ( -1.000000000000000000, 1.084202172485503818E-16, 0.000000000000000000 ) ) ;
#21 = CARTESIAN_POINT ( 'NONE',  ( -5.500000000000000000, 6.735557395310442023E-16, 5.500000000000000000 ) ) ;
#22 = DIRECTION ( 'NONE',  ( 0.000000000000000000, 0.000000000000000000, -1.000000000000000000 ) ) ;
#23 = DIRECTION ( 'NONE',  ( 0.000000000000000000, 0.000000000000000000, 1.000000000000000000 ) ) ;
#24 = ADVANCED_FACE ( 'NONE', ( #341 ), #319, .F. ) ;
#25 = EDGE_CURVE ( 'NONE', #37, #367, #247, .T. ) ;
#26 = VECTOR ( 'NONE', #287, 1000.000000000000000 ) ;
#27 = CARTESIAN_POINT ( 'NONE',  ( -16.00000000000000000, 11.00000000000000000, 0.000000000000000000 ) ) ;
#28 = ADVANCED_BREP_SHAPE_REPRESENTATION ( 'bj712-22032', ( #130, #267 ), #241 ) ;
#29 = EDGE_LOOP ( 'NONE', ( #301, #166, #160, #182 ) ) ;
#30 = EDGE_LOOP ( 'NONE', ( #206, #201, #191, #237 ) ) ;
#31 = VERTEX_POINT ( 'NONE', #390 ) ;
#32 = CC_DESIGN_SECURITY_CLASSIFICATION ( #277, ( #209 ) ) ;
#33 = DIRECTION ( 'NONE',  ( 1.000000000000000000, 0.000000000000000000, 0.000000000000000000 ) ) ;
#34 =( NAMED_UNIT ( * ) SI_UNIT ( $, .STERADIAN. ) SOLID_ANGLE_UNIT ( ) );
#35 = DESIGN_CONTEXT ( 'detailed design', #92, 'design' ) ;
#36 = APPLICATION_PROTOCOL_DEFINITION ( 'international standard', 'config_control_design', 1994, #92 ) ;
#37 = VERTEX_POINT ( 'NONE', #180 ) ;
#38 = VECTOR ( 'NONE', #148, 1000.000000000000000 ) ;
#39 = APPROVAL_PERSON_ORGANIZATION ( #162, #261, #132 ) ;
#40 = DIRECTION ( 'NONE',  ( 1.000000000000000000, 0.000000000000000000, 0.000000000000000000 ) ) ;
#41 = MECHANICAL_CONTEXT ( 'NONE', #71, 'mechanical' ) ;
#42 = PERSON_AND_ORGANIZATION ( #245, #378 ) ;
#43 = AXIS2_PLACEMENT_3D ( 'NONE', #125, #67, #97 ) ;
#44 = APPROVAL ( #340, 'UNSPECIFIED' ) ;
#45 = CALENDAR_DATE ( 2021, 25, 10 ) ;
#46 = CARTESIAN_POINT ( 'NONE',  ( 3.500000000000000000, 0.000000000000000000, 5.500000000000000000 ) ) ;
#47 = VERTEX_POINT ( 'NONE', #363 ) ;
#48 = CARTESIAN_POINT ( 'NONE',  ( 3.500000000000000000, 0.000000000000000000, 0.000000000000000000 ) ) ;
#49 = ORIENTED_EDGE ( 'NONE', *, *, #286, .T. ) ;
#50 = ADVANCED_FACE ( 'NONE', ( #61 ), #366, .F. ) ;
#51 = LINE ( 'NONE', #117, #335 ) ;
#52 = CARTESIAN_POINT ( 'NONE',  ( 16.00000000000000000, -11.00000000000000000, 12.00000000000000000 ) ) ;
#53 = ADVANCED_FACE ( 'NONE', ( #250 ), #303, .F. ) ;
#54 = CC_DESIGN_DATE_AND_TIME_ASSIGNMENT ( #380, #101, ( #277 ) ) ;
#55 = CARTESIAN_POINT ( 'NONE',  ( -16.00000000000000000, 11.00000000000000000, 12.00000000000000000 ) ) ;
#56 = CARTESIAN_POINT ( 'NONE',  ( 16.00000000000000000, -11.00000000000000000, 12.00000000000000000 ) ) ;
#57 = ORIENTED_EDGE ( 'NONE', *, *, #135, .F. ) ;
#58 = CARTESIAN_POINT ( 'NONE',  ( -16.00000000000000000, -11.00000000000000000, 0.000000000000000000 ) ) ;
#59 = VECTOR ( 'NONE', #40, 1000.000000000000000 ) ;
#60 = VERTEX_POINT ( 'NONE', #21 ) ;
#61 = FACE_OUTER_BOUND ( 'NONE', #131, .T. ) ;
#62 = EDGE_CURVE ( 'NONE', #122, #170, #266, .T. ) ;
#63 = CARTESIAN_POINT ( 'NONE',  ( 0.000000000000000000, 0.000000000000000000, 0.000000000000000000 ) ) ;
#64 = VECTOR ( 'NONE', #281, 1000.000000000000000 ) ;
#65 = ORIENTED_EDGE ( 'NONE', *, *, #105, .F. ) ;
#66 = LINE ( 'NONE', #133, #59 ) ;
#67 = DIRECTION ( 'NONE',  ( 0.000000000000000000, 1.000000000000000000, 0.000000000000000000 ) ) ;
#68 = EDGE_LOOP ( 'NONE', ( #142, #49, #2, #234 ) ) ;
#69 = DIRECTION ( 'NONE',  ( 1.000000000000000000, 0.000000000000000000, 0.000000000000000000 ) ) ;
#70 = CIRCLE ( 'NONE', #17, 5.500000000000000000 ) ;
#71 = APPLICATION_CONTEXT ( 'configuration controlled 3d designs of mechanical parts and assemblies' ) ;
#72 = DIRECTION ( 'NONE',  ( 1.000000000000000000, 0.000000000000000000, 0.000000000000000000 ) ) ;
#73 = EDGE_CURVE ( 'NONE', #31, #264, #276, .T. ) ;
#74 = PERSON_AND_ORGANIZATION ( #245, #378 ) ;
#75 = LOCAL_TIME ( 8, 59, 4.000000000000000000, #254 ) ;
#76 = LINE ( 'NONE', #265, #323 ) ;
#77 = EDGE_CURVE ( 'NONE', #138, #155, #76, .T. ) ;
#78 = PERSON_AND_ORGANIZATION ( #245, #378 ) ;
#79 = DIRECTION ( 'NONE',  ( -1.000000000000000000, 0.000000000000000000, 0.000000000000000000 ) ) ;
#80 = CALENDAR_DATE ( 2021, 25, 10 ) ;
#81 = PLANE ( 'NONE',  #345 ) ;
#82 = LINE ( 'NONE', #263, #216 ) ;
#83 = CARTESIAN_POINT ( 'NONE',  ( 16.00000000000000000, -11.00000000000000000, 0.000000000000000000 ) ) ;
#84 = DIRECTION ( 'NONE',  ( 1.000000000000000000, 0.000000000000000000, 0.000000000000000000 ) ) ;
#85 = CARTESIAN_POINT ( 'NONE',  ( 16.00000000000000000, -11.00000000000000000, 12.00000000000000000 ) ) ;
#86 = DIRECTION ( 'NONE',  ( 0.000000000000000000, 0.000000000000000000, 1.000000000000000000 ) ) ;
#87 = APPROVAL ( #348, 'UNSPECIFIED' ) ;
#88 = ORIENTED_EDGE ( 'NONE', *, *, #242, .F. ) ;
#89 = AXIS2_PLACEMENT_3D ( 'NONE', #116, #23, #314 ) ;
#90 = ORIENTED_EDGE ( 'NONE', *, *, #214, .F. ) ;
#91 = EDGE_LOOP ( 'NONE', ( #90, #373, #269, #359 ) ) ;
#92 = APPLICATION_CONTEXT ( 'configuration controlled 3d designs of mechanical parts and assemblies' ) ;
#93 = EDGE_LOOP ( 'NONE', ( #108, #194, #296, #198 ) ) ;
#94 = CARTESIAN_POINT ( 'NONE',  ( -5.500000000000000000, 6.735557395310442023E-16, 12.00000000000000000 ) ) ;
#95 = AXIS2_PLACEMENT_3D ( 'NONE', #224, #104, #202 ) ;
#96 = CC_DESIGN_DATE_AND_TIME_ASSIGNMENT ( #285, #109, ( #325 ) ) ;
#97 = DIRECTION ( 'NONE',  ( 0.000000000000000000, 0.000000000000000000, 1.000000000000000000 ) ) ;
#98 = CARTESIAN_POINT ( 'NONE',  ( 16.00000000000000000, 11.00000000000000000, 0.000000000000000000 ) ) ;
#99 = FACE_OUTER_BOUND ( 'NONE', #93, .T. ) ;
#100 = LINE ( 'NONE', #94, #240 ) ;
#101 = DATE_TIME_ROLE ( 'classification_date' ) ;
#102 = EDGE_LOOP ( 'NONE', ( #173, #322 ) ) ;
#103 = CARTESIAN_POINT ( 'NONE',  ( 0.000000000000000000, 0.000000000000000000, 5.500000000000000000 ) ) ;
#104 = DIRECTION ( 'NONE',  ( 1.000000000000000000, -1.577021341797094849E-16, 0.000000000000000000 ) ) ;
#105 = EDGE_CURVE ( 'NONE', #342, #138, #353, .T. ) ;
#106 = AXIS2_PLACEMENT_3D ( 'NONE', #174, #111, #236 ) ;
#107 = CC_DESIGN_PERSON_AND_ORGANIZATION_ASSIGNMENT ( #42, #15, ( #209 ) ) ;
#108 = ORIENTED_EDGE ( 'NONE', *, *, #374, .F. ) ;
#109 = DATE_TIME_ROLE ( 'creation_date' ) ;
#110 = DIRECTION ( 'NONE',  ( 1.000000000000000000, 0.000000000000000000, 0.000000000000000000 ) ) ;
#111 = DIRECTION ( 'NONE',  ( 0.000000000000000000, 0.000000000000000000, 1.000000000000000000 ) ) ;
#112 = EDGE_CURVE ( 'NONE', #155, #298, #176, .T. ) ;
#113 = DIRECTION ( 'NONE',  ( -1.000000000000000000, 1.084202172485503818E-16, 0.000000000000000000 ) ) ;
#114 = VECTOR ( 'NONE', #146, 1000.000000000000000 ) ;
#115 = LOCAL_TIME ( 8, 59, 4.000000000000000000, #283 ) ;
#116 = CARTESIAN_POINT ( 'NONE',  ( 0.000000000000000000, 0.000000000000000000, 12.00000000000000000 ) ) ;
#117 = CARTESIAN_POINT ( 'NONE',  ( -16.00000000000000000, 11.00000000000000000, 12.00000000000000000 ) ) ;
#118 = DIRECTION ( 'NONE',  ( 1.000000000000000000, 0.000000000000000000, 0.000000000000000000 ) ) ;
#119 = ORIENTED_EDGE ( 'NONE', *, *, #350, .F. ) ;
#120 = EDGE_CURVE ( 'NONE', #243, #122, #16, .T. ) ;
#121 = AXIS2_PLACEMENT_3D ( 'NONE', #134, #331, #118 ) ;
#122 = VERTEX_POINT ( 'NONE', #151 ) ;
#123 = EDGE_CURVE ( 'NONE', #243, #155, #51, .T. ) ;
#124 = ORIENTED_EDGE ( 'NONE', *, *, #123, .F. ) ;
#125 = CARTESIAN_POINT ( 'NONE',  ( -16.00000000000000000, -11.00000000000000000, 12.00000000000000000 ) ) ;
#126 = DIRECTION ( 'NONE',  ( 1.000000000000000000, 0.000000000000000000, 0.000000000000000000 ) ) ;
#127 = CLOSED_SHELL ( 'NONE', ( #215, #156, #12, #344, #310, #391, #53, #362, #50, #217, #24 ) ) ;
#128 = ORIENTED_EDGE ( 'NONE', *, *, #73, .F. ) ;
#129 = LOCAL_TIME ( 8, 59, 4.000000000000000000, #230 ) ;
#130 = MANIFOLD_SOLID_BREP ( 'Imported1', #127 ) ;
#131 = EDGE_LOOP ( 'NONE', ( #157, #119, #9, #181 ) ) ;
#132 = APPROVAL_ROLE ( '' ) ;
#133 = CARTESIAN_POINT ( 'NONE',  ( -16.00000000000000000, -11.00000000000000000, 0.000000000000000000 ) ) ;
#134 = CARTESIAN_POINT ( 'NONE',  ( 0.000000000000000000, 0.000000000000000000, 5.500000000000000000 ) ) ;
#135 = EDGE_CURVE ( 'NONE', #332, #334, #377, .T. ) ;
#136 = VECTOR ( 'NONE', #4, 1000.000000000000000 ) ;
#137 = PERSON_AND_ORGANIZATION ( #245, #378 ) ;
#138 = VERTEX_POINT ( 'NONE', #98 ) ;
#139 = PRODUCT_DEFINITION_SHAPE ( 'NONE', 'NONE',  #325 ) ;
#140 = EDGE_LOOP ( 'NONE', ( #128, #5, #360, #3 ) ) ;
#141 = SHAPE_DEFINITION_REPRESENTATION ( #139, #28 ) ;
#142 = ORIENTED_EDGE ( 'NONE', *, *, #62, .T. ) ;
#143 = ORIENTED_EDGE ( 'NONE', *, *, #361, .T. ) ;
#144 = DIRECTION ( 'NONE',  ( -1.577021341797094849E-16, -1.000000000000000000, 0.000000000000000000 ) ) ;
#145 = CALENDAR_DATE ( 2021, 25, 10 ) ;
#146 = DIRECTION ( 'NONE',  ( 0.000000000000000000, 1.000000000000000000, 0.000000000000000000 ) ) ;
#147 = CARTESIAN_POINT ( 'NONE',  ( 0.000000000000000000, 0.000000000000000000, 12.00000000000000000 ) ) ;
#148 = DIRECTION ( 'NONE',  ( 0.000000000000000000, 0.000000000000000000, 1.000000000000000000 ) ) ;
#149 = EDGE_CURVE ( 'NONE', #367, #37, #193, .T. ) ;
#150 = DIRECTION ( 'NONE',  ( 0.000000000000000000, 0.000000000000000000, 1.000000000000000000 ) ) ;
#151 = CARTESIAN_POINT ( 'NONE',  ( -16.00000000000000000, -11.00000000000000000, 12.00000000000000000 ) ) ;
#152 = VECTOR ( 'NONE', #144, 1000.000000000000000 ) ;
#153 = CARTESIAN_POINT ( 'NONE',  ( 0.000000000000000000, 0.000000000000000000, 0.000000000000000000 ) ) ;
#154 = ORIENTED_EDGE ( 'NONE', *, *, #25, .F. ) ;
#155 = VERTEX_POINT ( 'NONE', #27 ) ;
#156 = ADVANCED_FACE ( 'NONE', ( #280 ), #229, .F. ) ;
#157 = ORIENTED_EDGE ( 'NONE', *, *, #218, .F. ) ;
#158 = VECTOR ( 'NONE', #110, 1000.000000000000000 ) ;
#159 = CIRCLE ( 'NONE', #365, 5.500000000000000000 ) ;
#160 = ORIENTED_EDGE ( 'NONE', *, *, #183, .T. ) ;
#161 = PLANE ( 'NONE',  #336 ) ;
#162 = PERSON_AND_ORGANIZATION ( #245, #378 ) ;
#163 = FACE_OUTER_BOUND ( 'NONE', #379, .T. ) ;
#164 = LINE ( 'NONE', #256, #136 ) ;
#165 = PERSON_AND_ORGANIZATION_ROLE ( 'creator' ) ;
#166 = ORIENTED_EDGE ( 'NONE', *, *, #62, .F. ) ;
#167 = CALENDAR_DATE ( 2021, 25, 10 ) ;
#168 = VECTOR ( 'NONE', #315, 1000.000000000000000 ) ;
#169 = APPROVAL_DATE_TIME ( #262, #44 ) ;
#170 = VERTEX_POINT ( 'NONE', #207 ) ;
#171 = ORIENTED_EDGE ( 'NONE', *, *, #179, .F. ) ;
#172 = COORDINATED_UNIVERSAL_TIME_OFFSET ( 9, 0, .AHEAD. ) ;
#173 = ORIENTED_EDGE ( 'NONE', *, *, #279, .T. ) ;
#174 = CARTESIAN_POINT ( 'NONE',  ( 0.000000000000000000, 0.000000000000000000, 0.000000000000000000 ) ) ;
#175 = CARTESIAN_POINT ( 'NONE',  ( 0.000000000000000000, 0.000000000000000000, 12.00000000000000000 ) ) ;
#176 = LINE ( 'NONE', #356, #26 ) ;
#177 = FACE_BOUND ( 'NONE', #213, .T. ) ;
#178 = AXIS2_PLACEMENT_3D ( 'NONE', #103, #232, #347 ) ;
#179 = EDGE_CURVE ( 'NONE', #342, #243, #388, .T. ) ;
#180 = CARTESIAN_POINT ( 'NONE',  ( 3.500000000000000000, 0.000000000000000000, 5.500000000000000000 ) ) ;
#181 = ORIENTED_EDGE ( 'NONE', *, *, #242, .T. ) ;
#182 = ORIENTED_EDGE ( 'NONE', *, *, #374, .T. ) ;
#183 = EDGE_CURVE ( 'NONE', #122, #298, #82, .T. ) ;
#184 = ORIENTED_EDGE ( 'NONE', *, *, #6, .T. ) ;
#185 = AXIS2_PLACEMENT_3D ( 'NONE', #153, #150, #1 ) ;
#186 = DIRECTION ( 'NONE',  ( 0.000000000000000000, 0.000000000000000000, 1.000000000000000000 ) ) ;
#187 = CARTESIAN_POINT ( 'NONE',  ( 0.000000000000000000, 0.000000000000000000, 12.00000000000000000 ) ) ;
#188 = CARTESIAN_POINT ( 'NONE',  ( 0.000000000000000000, 0.000000000000000000, 5.500000000000000000 ) ) ;
#189 = UNCERTAINTY_MEASURE_WITH_UNIT (LENGTH_MEASURE( 1.000000000000000082E-05 ), #13, 'distance_accuracy_value', 'NONE');
#190 = CARTESIAN_POINT ( 'NONE',  ( 5.500000000000000000, 0.000000000000000000, 12.00000000000000000 ) ) ;
#191 = ORIENTED_EDGE ( 'NONE', *, *, #112, .T. ) ;
#192 = CARTESIAN_POINT ( 'NONE',  ( -3.500000000000000000, 4.286263797015736595E-16, 5.500000000000000000 ) ) ;
#193 = CIRCLE ( 'NONE', #121, 3.500000000000000000 ) ;
#194 = ORIENTED_EDGE ( 'NONE', *, *, #112, .F. ) ;
#195 = PRODUCT_RELATED_PRODUCT_CATEGORY ( 'detail', '', ( #253 ) ) ;
#196 = APPROVAL_PERSON_ORGANIZATION ( #137, #87, #205 ) ;
#197 = CARTESIAN_POINT ( 'NONE',  ( -5.500000000000000000, 6.735557395310442023E-16, 12.00000000000000000 ) ) ;
#198 = ORIENTED_EDGE ( 'NONE', *, *, #6, .F. ) ;
#199 = DATE_AND_TIME ( #145, #75 ) ;
#200 = DIRECTION ( 'NONE',  ( 0.000000000000000000, 0.000000000000000000, 1.000000000000000000 ) ) ;
#201 = ORIENTED_EDGE ( 'NONE', *, *, #123, .T. ) ;
#202 = DIRECTION ( 'NONE',  ( 1.577021341797094849E-16, 1.000000000000000000, 0.000000000000000000 ) ) ;
#203 = CARTESIAN_POINT ( 'NONE',  ( 16.00000000000000000, 11.00000000000000000, 12.00000000000000000 ) ) ;
#204 = PERSON_AND_ORGANIZATION ( #245, #378 ) ;
#205 = APPROVAL_ROLE ( '' ) ;
#206 = ORIENTED_EDGE ( 'NONE', *, *, #120, .F. ) ;
#207 = CARTESIAN_POINT ( 'NONE',  ( 16.00000000000000000, -11.00000000000000000, 12.00000000000000000 ) ) ;
#208 = CC_DESIGN_APPROVAL ( #261, ( #325 ) ) ;
#209 = PRODUCT_DEFINITION_FORMATION_WITH_SPECIFIED_SOURCE ( 'ANY', '', #253, .NOT_KNOWN. ) ;
#210 = DIRECTION ( 'NONE',  ( 1.000000000000000000, 0.000000000000000000, 0.000000000000000000 ) ) ;
#211 = DIRECTION ( 'NONE',  ( 0.000000000000000000, 0.000000000000000000, -1.000000000000000000 ) ) ;
#212 = DIRECTION ( 'NONE',  ( 1.000000000000000000, 0.000000000000000000, 0.000000000000000000 ) ) ;
#213 = EDGE_LOOP ( 'NONE', ( #154, #268 ) ) ;
#214 = EDGE_CURVE ( 'NONE', #31, #367, #317, .T. ) ;
#215 = ADVANCED_FACE ( 'NONE', ( #300 ), #219, .F. ) ;
#216 = VECTOR ( 'NONE', #22, 1000.000000000000000 ) ;
#217 = ADVANCED_FACE ( 'NONE', ( #321, #177 ), #338, .T. ) ;
#218 = EDGE_CURVE ( 'NONE', #60, #332, #100, .T. ) ;
#219 = CYLINDRICAL_SURFACE ( 'NONE', #14, 3.500000000000000000 ) ;
#220 = ORIENTED_EDGE ( 'NONE', *, *, #135, .T. ) ;
#221 = DIRECTION ( 'NONE',  ( 0.000000000000000000, 0.000000000000000000, 1.000000000000000000 ) ) ;
#222 = VECTOR ( 'NONE', #308, 1000.000000000000000 ) ;
#223 = AXIS2_PLACEMENT_3D ( 'NONE', #188, #251, #69 ) ;
#224 = CARTESIAN_POINT ( 'NONE',  ( -16.00000000000000000, 11.00000000000000000, 12.00000000000000000 ) ) ;
#225 = DIRECTION ( 'NONE',  ( -1.084202172485503818E-16, -1.000000000000000000, 0.000000000000000000 ) ) ;
#226 = PERSON_AND_ORGANIZATION ( #245, #378 ) ;
#227 = CARTESIAN_POINT ( 'NONE',  ( 16.00000000000000000, -11.00000000000000000, 0.000000000000000000 ) ) ;
#228 = LINE ( 'NONE', #372, #222 ) ;
#229 = CYLINDRICAL_SURFACE ( 'NONE', #89, 5.500000000000000000 ) ;
#230 = COORDINATED_UNIVERSAL_TIME_OFFSET ( 9, 0, .AHEAD. ) ;
#231 = ORIENTED_EDGE ( 'NONE', *, *, #218, .T. ) ;
#232 = DIRECTION ( 'NONE',  ( 0.000000000000000000, 0.000000000000000000, 1.000000000000000000 ) ) ;
#233 = AXIS2_PLACEMENT_3D ( 'NONE', #368, #272, #7 ) ;
#234 = ORIENTED_EDGE ( 'NONE', *, *, #120, .T. ) ;
#235 = CIRCLE ( 'NONE', #223, 5.500000000000000000 ) ;
#236 = DIRECTION ( 'NONE',  ( 1.000000000000000000, 0.000000000000000000, 0.000000000000000000 ) ) ;
#237 = ORIENTED_EDGE ( 'NONE', *, *, #183, .F. ) ;
#238 = CC_DESIGN_PERSON_AND_ORGANIZATION_ASSIGNMENT ( #78, #258, ( #277 ) ) ;
#239 = SECURITY_CLASSIFICATION_LEVEL ( 'unclassified' ) ;
#240 = VECTOR ( 'NONE', #294, 1000.000000000000000 ) ;
#241 =( GEOMETRIC_REPRESENTATION_CONTEXT ( 3 ) GLOBAL_UNCERTAINTY_ASSIGNED_CONTEXT ( ( #189 ) ) GLOBAL_UNIT_ASSIGNED_CONTEXT ( ( #13, #249, #34 ) ) REPRESENTATION_CONTEXT ( 'NONE', 'WORKASPACE' ) );
#242 = EDGE_CURVE ( 'NONE', #334, #332, #70, .T. ) ;
#243 = VERTEX_POINT ( 'NONE', #55 ) ;
#244 = CARTESIAN_POINT ( 'NONE',  ( 16.00000000000000000, -11.00000000000000000, 0.000000000000000000 ) ) ;
#245 = PERSON ( 'UNSPECIFIED', 'UNSPECIFIED', 'UNSPECIFIED', ('UNSPECIFIED'), ('UNSPECIFIED'), ('UNSPECIFIED') ) ;
#246 = ORIENTED_EDGE ( 'NONE', *, *, #291, .T. ) ;
#247 = CIRCLE ( 'NONE', #178, 3.500000000000000000 ) ;
#248 = ORIENTED_EDGE ( 'NONE', *, *, #361, .F. ) ;
#249 =( NAMED_UNIT ( * ) PLANE_ANGLE_UNIT ( ) SI_UNIT ( $, .RADIAN. ) );
#250 = FACE_OUTER_BOUND ( 'NONE', #30, .T. ) ;
#251 = DIRECTION ( 'NONE',  ( 0.000000000000000000, 0.000000000000000000, 1.000000000000000000 ) ) ;
#252 = LINE ( 'NONE', #85, #328 ) ;
#253 = PRODUCT ( 'bj712-22032', 'bj712-22032', '', ( #41 ) ) ;
#254 = COORDINATED_UNIVERSAL_TIME_OFFSET ( 9, 0, .AHEAD. ) ;
#255 = PLANE ( 'NONE',  #371 ) ;
#256 = CARTESIAN_POINT ( 'NONE',  ( 5.500000000000000000, 0.000000000000000000, 12.00000000000000000 ) ) ;
#257 = APPROVAL_DATE_TIME ( #199, #261 ) ;
#258 = PERSON_AND_ORGANIZATION_ROLE ( 'classification_officer' ) ;
#259 = ORIENTED_EDGE ( 'NONE', *, *, #286, .F. ) ;
#260 = CC_DESIGN_APPROVAL ( #44, ( #277 ) ) ;
#261 = APPROVAL ( #278, 'UNSPECIFIED' ) ;
#262 = DATE_AND_TIME ( #167, #19 ) ;
#263 = CARTESIAN_POINT ( 'NONE',  ( -16.00000000000000000, -11.00000000000000000, 12.00000000000000000 ) ) ;
#264 = VERTEX_POINT ( 'NONE', #48 ) ;
#265 = CARTESIAN_POINT ( 'NONE',  ( 16.00000000000000000, 11.00000000000000000, 0.000000000000000000 ) ) ;
#266 = LINE ( 'NONE', #318, #158 ) ;
#267 = AXIS2_PLACEMENT_3D ( 'NONE', #63, #186, #126 ) ;
#268 = ORIENTED_EDGE ( 'NONE', *, *, #149, .F. ) ;
#269 = ORIENTED_EDGE ( 'NONE', *, *, #343, .T. ) ;
#270 = EDGE_LOOP ( 'NONE', ( #88, #57 ) ) ;
#271 = FACE_OUTER_BOUND ( 'NONE', #324, .T. ) ;
#272 = DIRECTION ( 'NONE',  ( 0.000000000000000000, 0.000000000000000000, 1.000000000000000000 ) ) ;
#273 = ORIENTED_EDGE ( 'NONE', *, *, #105, .T. ) ;
#274 = PLANE ( 'NONE',  #43 ) ;
#275 = EDGE_CURVE ( 'NONE', #47, #334, #164, .T. ) ;
#276 = CIRCLE ( 'NONE', #106, 3.500000000000000000 ) ;
#277 = SECURITY_CLASSIFICATION ( '', '', #239 ) ;
#278 = APPROVAL_STATUS ( 'not_yet_approved' ) ;
#279 = EDGE_CURVE ( 'NONE', #264, #31, #354, .T. ) ;
#280 = FACE_OUTER_BOUND ( 'NONE', #386, .T. ) ;
#281 = DIRECTION ( 'NONE',  ( 0.000000000000000000, 1.000000000000000000, 0.000000000000000000 ) ) ;
#282 = COORDINATED_UNIVERSAL_TIME_OFFSET ( 9, 0, .AHEAD. ) ;
#283 = COORDINATED_UNIVERSAL_TIME_OFFSET ( 9, 0, .AHEAD. ) ;
#284 = ORIENTED_EDGE ( 'NONE', *, *, #77, .T. ) ;
#285 = DATE_AND_TIME ( #45, #295 ) ;
#286 = EDGE_CURVE ( 'NONE', #170, #342, #357, .T. ) ;
#287 = DIRECTION ( 'NONE',  ( -1.577021341797094849E-16, -1.000000000000000000, 0.000000000000000000 ) ) ;
#288 = APPROVAL_PERSON_ORGANIZATION ( #204, #44, #311 ) ;
#289 = DIRECTION ( 'NONE',  ( 0.000000000000000000, 0.000000000000000000, 1.000000000000000000 ) ) ;
#290 = CARTESIAN_POINT ( 'NONE',  ( -3.500000000000000000, 4.286263797015736595E-16, 12.00000000000000000 ) ) ;
#291 = EDGE_CURVE ( 'NONE', #170, #297, #252, .T. ) ;
#292 = CARTESIAN_POINT ( 'NONE',  ( -16.00000000000000000, 11.00000000000000000, 12.00000000000000000 ) ) ;
#293 = PLANE ( 'NONE',  #387 ) ;
#294 = DIRECTION ( 'NONE',  ( 0.000000000000000000, 0.000000000000000000, 1.000000000000000000 ) ) ;
#295 = LOCAL_TIME ( 8, 59, 4.000000000000000000, #172 ) ;
#296 = ORIENTED_EDGE ( 'NONE', *, *, #77, .F. ) ;
#297 = VERTEX_POINT ( 'NONE', #244 ) ;
#298 = VERTEX_POINT ( 'NONE', #58 ) ;
#299 = ORIENTED_EDGE ( 'NONE', *, *, #275, .F. ) ;
#300 = FACE_OUTER_BOUND ( 'NONE', #140, .T. ) ;
#301 = ORIENTED_EDGE ( 'NONE', *, *, #291, .F. ) ;
#302 = EDGE_LOOP ( 'NONE', ( #326, #143 ) ) ;
#303 = PLANE ( 'NONE',  #95 ) ;
#304 = DIRECTION ( 'NONE',  ( 0.000000000000000000, 0.000000000000000000, 1.000000000000000000 ) ) ;
#305 = CARTESIAN_POINT ( 'NONE',  ( 16.00000000000000000, 11.00000000000000000, 12.00000000000000000 ) ) ;
#306 = PERSON_AND_ORGANIZATION_ROLE ( 'design_owner' ) ;
#307 = DIRECTION ( 'NONE',  ( 1.000000000000000000, 0.000000000000000000, 0.000000000000000000 ) ) ;
#308 = DIRECTION ( 'NONE',  ( 0.000000000000000000, 0.000000000000000000, 1.000000000000000000 ) ) ;
#309 = PERSON_AND_ORGANIZATION_ROLE ( 'creator' ) ;
#310 = ADVANCED_FACE ( 'NONE', ( #271 ), #293, .F. ) ;
#311 = APPROVAL_ROLE ( '' ) ;
#312 = DIRECTION ( 'NONE',  ( 1.000000000000000000, 0.000000000000000000, 0.000000000000000000 ) ) ;
#313 = PERSON_AND_ORGANIZATION ( #245, #378 ) ;
#314 = DIRECTION ( 'NONE',  ( 1.000000000000000000, 0.000000000000000000, 0.000000000000000000 ) ) ;
#315 = DIRECTION ( 'NONE',  ( 0.000000000000000000, 0.000000000000000000, -1.000000000000000000 ) ) ;
#316 = DATE_AND_TIME ( #80, #129 ) ;
#317 = LINE ( 'NONE', #290, #38 ) ;
#318 = CARTESIAN_POINT ( 'NONE',  ( -16.00000000000000000, -11.00000000000000000, 12.00000000000000000 ) ) ;
#319 = CYLINDRICAL_SURFACE ( 'NONE', #10, 3.500000000000000000 ) ;
#320 = CC_DESIGN_PERSON_AND_ORGANIZATION_ASSIGNMENT ( #74, #309, ( #209 ) ) ;
#321 = FACE_OUTER_BOUND ( 'NONE', #302, .T. ) ;
#322 = ORIENTED_EDGE ( 'NONE', *, *, #73, .T. ) ;
#323 = VECTOR ( 'NONE', #113, 1000.000000000000000 ) ;
#324 = EDGE_LOOP ( 'NONE', ( #65, #259, #246, #184 ) ) ;
#325 = PRODUCT_DEFINITION ( 'UNKNOWN', '', #209, #35 ) ;
#326 = ORIENTED_EDGE ( 'NONE', *, *, #350, .T. ) ;
#327 = DIRECTION ( 'NONE',  ( 1.000000000000000000, -1.084202172485503818E-16, 0.000000000000000000 ) ) ;
#328 = VECTOR ( 'NONE', #211, 1000.000000000000000 ) ;
#329 = DIRECTION ( 'NONE',  ( 1.000000000000000000, 0.000000000000000000, 0.000000000000000000 ) ) ;
#330 = APPLICATION_PROTOCOL_DEFINITION ( 'international standard', 'config_control_design', 1994, #71 ) ;
#331 = DIRECTION ( 'NONE',  ( 0.000000000000000000, 0.000000000000000000, 1.000000000000000000 ) ) ;
#332 = VERTEX_POINT ( 'NONE', #197 ) ;
#333 = DIRECTION ( 'NONE',  ( 0.000000000000000000, 0.000000000000000000, 1.000000000000000000 ) ) ;
#334 = VERTEX_POINT ( 'NONE', #190 ) ;
#335 = VECTOR ( 'NONE', #383, 1000.000000000000000 ) ;
#336 = AXIS2_PLACEMENT_3D ( 'NONE', #227, #333, #329 ) ;
#337 = FACE_BOUND ( 'NONE', #102, .T. ) ;
#338 = PLANE ( 'NONE',  #364 ) ;
#339 = APPROVAL_DATE_TIME ( #316, #87 ) ;
#340 = APPROVAL_STATUS ( 'not_yet_approved' ) ;
#341 = FACE_OUTER_BOUND ( 'NONE', #91, .T. ) ;
#342 = VERTEX_POINT ( 'NONE', #305 ) ;
#343 = EDGE_CURVE ( 'NONE', #264, #37, #228, .T. ) ;
#344 = ADVANCED_FACE ( 'NONE', ( #11 ), #274, .F. ) ;
#345 = AXIS2_PLACEMENT_3D ( 'NONE', #52, #289, #210 ) ;
#346 = CC_DESIGN_APPROVAL ( #87, ( #209 ) ) ;
#347 = DIRECTION ( 'NONE',  ( 1.000000000000000000, 0.000000000000000000, 0.000000000000000000 ) ) ;
#348 = APPROVAL_STATUS ( 'not_yet_approved' ) ;
#349 = CARTESIAN_POINT ( 'NONE',  ( 16.00000000000000000, 11.00000000000000000, 12.00000000000000000 ) ) ;
#350 = EDGE_CURVE ( 'NONE', #47, #60, #159, .T. ) ;
#351 = CARTESIAN_POINT ( 'NONE',  ( 16.00000000000000000, -11.00000000000000000, 12.00000000000000000 ) ) ;
#352 = DIRECTION ( 'NONE',  ( 0.000000000000000000, 0.000000000000000000, 1.000000000000000000 ) ) ;
#353 = LINE ( 'NONE', #203, #168 ) ;
#354 = CIRCLE ( 'NONE', #185, 3.500000000000000000 ) ;
#355 = LINE ( 'NONE', #83, #114 ) ;
#356 = CARTESIAN_POINT ( 'NONE',  ( -16.00000000000000000, 11.00000000000000000, 0.000000000000000000 ) ) ;
#357 = LINE ( 'NONE', #56, #64 ) ;
#358 = DIRECTION ( 'NONE',  ( 0.000000000000000000, 0.000000000000000000, 1.000000000000000000 ) ) ;
#359 = ORIENTED_EDGE ( 'NONE', *, *, #25, .T. ) ;
#360 = ORIENTED_EDGE ( 'NONE', *, *, #149, .T. ) ;
#361 = EDGE_CURVE ( 'NONE', #60, #47, #235, .T. ) ;
#362 = ADVANCED_FACE ( 'NONE', ( #337, #99 ), #161, .F. ) ;
#363 = CARTESIAN_POINT ( 'NONE',  ( 5.500000000000000000, 0.000000000000000000, 5.500000000000000000 ) ) ;
#364 = AXIS2_PLACEMENT_3D ( 'NONE', #46, #358, #307 ) ;
#365 = AXIS2_PLACEMENT_3D ( 'NONE', #8, #376, #33 ) ;
#366 = CYLINDRICAL_SURFACE ( 'NONE', #233, 5.500000000000000000 ) ;
#367 = VERTEX_POINT ( 'NONE', #192 ) ;
#368 = CARTESIAN_POINT ( 'NONE',  ( 0.000000000000000000, 0.000000000000000000, 12.00000000000000000 ) ) ;
#369 = CARTESIAN_POINT ( 'NONE',  ( 16.00000000000000000, 11.00000000000000000, 12.00000000000000000 ) ) ;
#370 = VECTOR ( 'NONE', #20, 1000.000000000000000 ) ;
#371 = AXIS2_PLACEMENT_3D ( 'NONE', #369, #225, #327 ) ;
#372 = CARTESIAN_POINT ( 'NONE',  ( 3.500000000000000000, 0.000000000000000000, 12.00000000000000000 ) ) ;
#373 = ORIENTED_EDGE ( 'NONE', *, *, #279, .F. ) ;
#374 = EDGE_CURVE ( 'NONE', #298, #297, #66, .T. ) ;
#375 = CC_DESIGN_PERSON_AND_ORGANIZATION_ASSIGNMENT ( #313, #165, ( #325 ) ) ;
#376 = DIRECTION ( 'NONE',  ( 0.000000000000000000, 0.000000000000000000, 1.000000000000000000 ) ) ;
#377 = CIRCLE ( 'NONE', #382, 5.500000000000000000 ) ;
#378 = ORGANIZATION ( 'UNSPECIFIED', 'UNSPECIFIED', '' ) ;
#379 = EDGE_LOOP ( 'NONE', ( #124, #171, #273, #284 ) ) ;
#380 = DATE_AND_TIME ( #18, #115 ) ;
#381 = FACE_OUTER_BOUND ( 'NONE', #68, .T. ) ;
#382 = AXIS2_PLACEMENT_3D ( 'NONE', #147, #221, #72 ) ;
#383 = DIRECTION ( 'NONE',  ( 0.000000000000000000, 0.000000000000000000, -1.000000000000000000 ) ) ;
#384 = FACE_BOUND ( 'NONE', #270, .T. ) ;
#385 = CC_DESIGN_PERSON_AND_ORGANIZATION_ASSIGNMENT ( #226, #306, ( #253 ) ) ;
#386 = EDGE_LOOP ( 'NONE', ( #248, #231, #220, #299 ) ) ;
#387 = AXIS2_PLACEMENT_3D ( 'NONE', #351, #79, #304 ) ;
#388 = LINE ( 'NONE', #349, #370 ) ;
#389 = CARTESIAN_POINT ( 'NONE',  ( 0.000000000000000000, 0.000000000000000000, 12.00000000000000000 ) ) ;
#390 = CARTESIAN_POINT ( 'NONE',  ( -3.500000000000000000, 4.286263797015736595E-16, 0.000000000000000000 ) ) ;
#391 = ADVANCED_FACE ( 'NONE', ( #163 ), #255, .F. ) ;
ENDSEC;
END-ISO-10303-21;
