ISO-10303-21;
HEADER;
FILE_DESCRIPTION (( 'STEP AP203' ),
    '1' );
FILE_NAME ('bj790-08001.STEP',
    '2021-10-25T00:28:26',
    ( '' ),
    ( '' ),
    'SwSTEP 2.0',
    'SolidWorks 2020',
    '' );
FILE_SCHEMA (( 'CONFIG_CONTROL_DESIGN' ));
ENDSEC;

DATA;
#1 = EDGE_LOOP ( 'NONE', ( #238, #284, #51, #312 ) ) ;
#2 = CARTESIAN_POINT ( 'NONE',  ( 1.500000000000000000, 0.000000000000000000, 11.99999996300000049 ) ) ;
#3 = CIRCLE ( 'NONE', #76, 1.999999881473059959 ) ;
#4 = DATE_AND_TIME ( #165, #348 ) ;
#5 = CC_DESIGN_APPROVAL ( #305, ( #311 ) ) ;
#6 = DIRECTION ( 'NONE',  ( 1.000000000000000000, 0.000000000000000000, 0.000000000000000000 ) ) ;
#7 = VERTEX_POINT ( 'NONE', #208 ) ;
#8 = FACE_BOUND ( 'NONE', #70, .T. ) ;
#9 = VERTEX_POINT ( 'NONE', #296 ) ;
#10 = CARTESIAN_POINT ( 'NONE',  ( 0.000000000000000000, 0.000000000000000000, 17.99999996299999694 ) ) ;
#11 = CIRCLE ( 'NONE', #121, 3.141777999999999960 ) ;
#12 = EDGE_LOOP ( 'NONE', ( #262, #67, #289, #160 ) ) ;
#13 = AXIS2_PLACEMENT_3D ( 'NONE', #45, #389, #41 ) ;
#14 = VECTOR ( 'NONE', #288, 1000.000000000000227 ) ;
#15 = DIRECTION ( 'NONE',  ( 0.000000000000000000, 0.000000000000000000, -1.000000000000000000 ) ) ;
#16 = FACE_OUTER_BOUND ( 'NONE', #253, .T. ) ;
#17 = ADVANCED_FACE ( 'NONE', ( #16 ), #270, .T. ) ;
#18 = COORDINATED_UNIVERSAL_TIME_OFFSET ( 9, 0, .AHEAD. ) ;
#19 = VERTEX_POINT ( 'NONE', #332 ) ;
#20 = APPROVAL ( #287, 'UNSPECIFIED' ) ;
#21 = CALENDAR_DATE ( 2021, 25, 10 ) ;
#22 = CARTESIAN_POINT ( 'NONE',  ( 4.000000000000000000, 4.898587196589413815E-16, 12.00000000000000000 ) ) ;
#23 = CONICAL_SURFACE ( 'NONE', #169, 4.000000000000000000, 0.5235985737060565581 ) ;
#24 = DIRECTION ( 'NONE',  ( 0.000000000000000000, 0.000000000000000000, -1.000000000000000000 ) ) ;
#25 = EDGE_CURVE ( 'NONE', #325, #7, #11, .T. ) ;
#26 = DIRECTION ( 'NONE',  ( 0.000000000000000000, 0.000000000000000000, -1.000000000000000000 ) ) ;
#27 = CC_DESIGN_DATE_AND_TIME_ASSIGNMENT ( #369, #99, ( #311 ) ) ;
#28 = DIRECTION ( 'NONE',  ( 1.000000000000000000, 0.000000000000000000, 0.000000000000000000 ) ) ;
#29 = CARTESIAN_POINT ( 'NONE',  ( 0.000000000000000000, 0.000000000000000000, 11.99999996300000049 ) ) ;
#30 = CIRCLE ( 'NONE', #326, 3.422649999999999970 ) ;
#31 = DIRECTION ( 'NONE',  ( -1.000000000000000000, 0.000000000000000000, 0.000000000000000000 ) ) ;
#32 = DIRECTION ( 'NONE',  ( -1.000000000000000000, 0.000000000000000000, 0.000000000000000000 ) ) ;
#33 = CARTESIAN_POINT ( 'NONE',  ( 0.000000000000000000, 0.000000000000000000, 14.35794600000000010 ) ) ;
#34 = DATE_AND_TIME ( #345, #251 ) ;
#35 = CARTESIAN_POINT ( 'NONE',  ( -1.500000000000000000, 1.836970198721029934E-16, 11.99999996300000049 ) ) ;
#36 = ADVANCED_BREP_SHAPE_REPRESENTATION ( 'bj790-08001', ( #309, #405 ), #100 ) ;
#37 = ORIENTED_EDGE ( 'NONE', *, *, #374, .T. ) ;
#38 = EDGE_CURVE ( 'NONE', #174, #80, #131, .T. ) ;
#39 = DIRECTION ( 'NONE',  ( -1.000000000000000000, 0.000000000000000000, 0.000000000000000000 ) ) ;
#40 = ORIENTED_EDGE ( 'NONE', *, *, #350, .F. ) ;
#41 = DIRECTION ( 'NONE',  ( -1.000000000000000000, 0.000000000000000000, 0.000000000000000000 ) ) ;
#42 = ORIENTED_EDGE ( 'NONE', *, *, #203, .F. ) ;
#43 = AXIS2_PLACEMENT_3D ( 'NONE', #393, #188, #304 ) ;
#44 = ORGANIZATION ( 'UNSPECIFIED', 'UNSPECIFIED', '' ) ;
#45 = CARTESIAN_POINT ( 'NONE',  ( 0.000000000000000000, 0.000000000000000000, 12.00000000000000000 ) ) ;
#46 = ORIENTED_EDGE ( 'NONE', *, *, #89, .T. ) ;
#47 = LINE ( 'NONE', #144, #108 ) ;
#48 = EDGE_CURVE ( 'NONE', #321, #180, #245, .T. ) ;
#49 = EDGE_LOOP ( 'NONE', ( #195, #224, #211, #172 ) ) ;
#50 = CARTESIAN_POINT ( 'NONE',  ( -3.141777999999999960, 0.000000000000000000, 14.35794600000000010 ) ) ;
#51 = ORIENTED_EDGE ( 'NONE', *, *, #343, .T. ) ;
#52 = EDGE_CURVE ( 'NONE', #321, #109, #336, .T. ) ;
#53 = LOCAL_TIME ( 9, 28, 26.00000000000000000, #18 ) ;
#54 = FACE_OUTER_BOUND ( 'NONE', #230, .T. ) ;
#55 = ORIENTED_EDGE ( 'NONE', *, *, #377, .F. ) ;
#56 = CARTESIAN_POINT ( 'NONE',  ( 0.000000000000000000, 0.000000000000000000, 17.99999996299999694 ) ) ;
#57 = CARTESIAN_POINT ( 'NONE',  ( 0.000000000000000000, 0.000000000000000000, -1.734723475976804925E-15 ) ) ;
#58 = LINE ( 'NONE', #217, #397 ) ;
#59 = CARTESIAN_POINT ( 'NONE',  ( 4.000000000000000000, 4.898587196589412829E-16, -3.707007570660325158 ) ) ;
#60 = CARTESIAN_POINT ( 'NONE',  ( 1.500000000000000000, 0.000000000000000000, 11.99999996300000049 ) ) ;
#61 = EDGE_CURVE ( 'NONE', #75, #140, #157, .T. ) ;
#62 = DIRECTION ( 'NONE',  ( 0.000000000000000000, 0.000000000000000000, -1.000000000000000000 ) ) ;
#63 = DIRECTION ( 'NONE',  ( -1.000000000000000000, 0.000000000000000000, 0.000000000000000000 ) ) ;
#64 = CIRCLE ( 'NONE', #13, 4.000000000000000000 ) ;
#65 = ORIENTED_EDGE ( 'NONE', *, *, #374, .F. ) ;
#66 = APPROVAL_ROLE ( '' ) ;
#67 = ORIENTED_EDGE ( 'NONE', *, *, #48, .F. ) ;
#68 = ADVANCED_FACE ( 'NONE', ( #275 ), #353, .T. ) ;
#69 = CARTESIAN_POINT ( 'NONE',  ( -1.500000000000000000, 1.836970198721029934E-16, 17.99999996299999694 ) ) ;
#70 = EDGE_LOOP ( 'NONE', ( #264, #317 ) ) ;
#71 = AXIS2_PLACEMENT_3D ( 'NONE', #187, #156, #398 ) ;
#72 = DIRECTION ( 'NONE',  ( 0.000000000000000000, 0.000000000000000000, 1.000000000000000000 ) ) ;
#73 = ORIENTED_EDGE ( 'NONE', *, *, #48, .T. ) ;
#74 = CARTESIAN_POINT ( 'NONE',  ( -1.999999881473059959, 0.000000000000000000, 17.99999996299999694 ) ) ;
#75 = VERTEX_POINT ( 'NONE', #22 ) ;
#76 = AXIS2_PLACEMENT_3D ( 'NONE', #10, #141, #263 ) ;
#77 = PLANE ( 'NONE',  #335 ) ;
#78 = ORIENTED_EDGE ( 'NONE', *, *, #96, .F. ) ;
#79 = FACE_OUTER_BOUND ( 'NONE', #354, .T. ) ;
#80 = VERTEX_POINT ( 'NONE', #277 ) ;
#81 = LINE ( 'NONE', #147, #189 ) ;
#82 = ORIENTED_EDGE ( 'NONE', *, *, #219, .T. ) ;
#83 = AXIS2_PLACEMENT_3D ( 'NONE', #228, #349, #399 ) ;
#84 = APPROVAL_PERSON_ORGANIZATION ( #155, #305, #222 ) ;
#85 = DIRECTION ( 'NONE',  ( 0.3420200877224304770, 4.188538056733715306E-17, -0.9396926410238300997 ) ) ;
#86 = LINE ( 'NONE', #95, #234 ) ;
#87 = PERSON_AND_ORGANIZATION_ROLE ( 'creator' ) ;
#88 = DIRECTION ( 'NONE',  ( -1.000000000000000000, 0.000000000000000000, 0.000000000000000000 ) ) ;
#89 = EDGE_CURVE ( 'NONE', #236, #75, #249, .T. ) ;
#90 = APPLICATION_CONTEXT ( 'configuration controlled 3d designs of mechanical parts and assemblies' ) ;
#91 = CALENDAR_DATE ( 2021, 25, 10 ) ;
#92 = DIRECTION ( 'NONE',  ( 0.000000000000000000, 0.000000000000000000, -1.000000000000000000 ) ) ;
#93 = CONICAL_SURFACE ( 'NONE', #314, 3.141777999999999960, 0.3490657912271363239 ) ;
#94 = LOCAL_TIME ( 9, 28, 26.00000000000000000, #331 ) ;
#95 = CARTESIAN_POINT ( 'NONE',  ( -4.000000000000000000, 0.000000000000000000, -3.707007570660325158 ) ) ;
#96 = EDGE_CURVE ( 'NONE', #236, #9, #86, .T. ) ;
#97 = ORIENTED_EDGE ( 'NONE', *, *, #25, .T. ) ;
#98 = VECTOR ( 'NONE', #365, 1000.000000000000000 ) ;
#99 = DATE_TIME_ROLE ( 'creation_date' ) ;
#100 =( GEOMETRIC_REPRESENTATION_CONTEXT ( 3 ) GLOBAL_UNCERTAINTY_ASSIGNED_CONTEXT ( ( #380 ) ) GLOBAL_UNIT_ASSIGNED_CONTEXT ( ( #124, #125, #366 ) ) REPRESENTATION_CONTEXT ( 'NONE', 'WORKASPACE' ) );
#101 = CARTESIAN_POINT ( 'NONE',  ( 0.000000000000000000, 0.000000000000000000, 1.000000000000000000 ) ) ;
#102 = ORIENTED_EDGE ( 'NONE', *, *, #333, .T. ) ;
#103 = DIRECTION ( 'NONE',  ( 0.000000000000000000, 0.000000000000000000, 1.000000000000000000 ) ) ;
#104 = EDGE_CURVE ( 'NONE', #180, #321, #402, .T. ) ;
#105 = CYLINDRICAL_SURFACE ( 'NONE', #362, 4.000000000000000000 ) ;
#106 = VECTOR ( 'NONE', #26, 1000.000000000000000 ) ;
#107 = APPROVAL_DATE_TIME ( #4, #20 ) ;
#108 = VECTOR ( 'NONE', #266, 1000.000000000000000 ) ;
#109 = VERTEX_POINT ( 'NONE', #272 ) ;
#110 = DIRECTION ( 'NONE',  ( 0.000000000000000000, 0.000000000000000000, -1.000000000000000000 ) ) ;
#111 = ORIENTED_EDGE ( 'NONE', *, *, #25, .F. ) ;
#112 = PRODUCT_DEFINITION_SHAPE ( 'NONE', 'NONE',  #311 ) ;
#113 = CARTESIAN_POINT ( 'NONE',  ( 0.000000000000000000, 0.000000000000000000, -3.707007570660325158 ) ) ;
#114 = CYLINDRICAL_SURFACE ( 'NONE', #246, 1.500000000000000000 ) ;
#115 = CIRCLE ( 'NONE', #346, 1.999999792563194934 ) ;
#116 = CARTESIAN_POINT ( 'NONE',  ( 0.000000000000000000, 0.000000000000000000, 1.000000000000000000 ) ) ;
#117 = ORIENTED_EDGE ( 'NONE', *, *, #333, .F. ) ;
#118 = PRODUCT_RELATED_PRODUCT_CATEGORY ( 'detail', '', ( #404 ) ) ;
#119 = DIRECTION ( 'NONE',  ( 1.000000000000000000, 0.000000000000000000, 0.000000000000000000 ) ) ;
#120 = DIRECTION ( 'NONE',  ( 0.000000000000000000, 0.000000000000000000, -1.000000000000000000 ) ) ;
#121 = AXIS2_PLACEMENT_3D ( 'NONE', #337, #62, #88 ) ;
#122 = LINE ( 'NONE', #243, #242 ) ;
#123 = CONICAL_SURFACE ( 'NONE', #83, 3.141777999999999960, 0.3490657912271363239 ) ;
#124 =( LENGTH_UNIT ( ) NAMED_UNIT ( * ) SI_UNIT ( .MILLI., .METRE. ) );
#125 =( NAMED_UNIT ( * ) PLANE_ANGLE_UNIT ( ) SI_UNIT ( $, .RADIAN. ) );
#126 = CIRCLE ( 'NONE', #303, 3.422649999999999970 ) ;
#127 = APPROVAL_PERSON_ORGANIZATION ( #136, #20, #227 ) ;
#128 = DIRECTION ( 'NONE',  ( -1.000000000000000000, 0.000000000000000000, 0.000000000000000000 ) ) ;
#129 = EDGE_CURVE ( 'NONE', #180, #166, #122, .T. ) ;
#130 = DIRECTION ( 'NONE',  ( 0.000000000000000000, 0.000000000000000000, -1.000000000000000000 ) ) ;
#131 = CIRCLE ( 'NONE', #220, 1.999999881473059959 ) ;
#132 = APPROVAL_STATUS ( 'not_yet_approved' ) ;
#133 = ORIENTED_EDGE ( 'NONE', *, *, #391, .T. ) ;
#134 = COORDINATED_UNIVERSAL_TIME_OFFSET ( 9, 0, .AHEAD. ) ;
#135 = DIRECTION ( 'NONE',  ( 1.000000000000000000, 0.000000000000000000, 0.000000000000000000 ) ) ;
#136 = PERSON_AND_ORGANIZATION ( #344, #44 ) ;
#137 = CARTESIAN_POINT ( 'NONE',  ( 0.000000000000000000, 0.000000000000000000, 17.99999996299999694 ) ) ;
#138 = SECURITY_CLASSIFICATION ( '', '', #406 ) ;
#139 = FACE_OUTER_BOUND ( 'NONE', #385, .T. ) ;
#140 = VERTEX_POINT ( 'NONE', #330 ) ;
#141 = DIRECTION ( 'NONE',  ( 0.000000000000000000, 0.000000000000000000, -1.000000000000000000 ) ) ;
#142 = ORIENTED_EDGE ( 'NONE', *, *, #343, .F. ) ;
#143 = CC_DESIGN_PERSON_AND_ORGANIZATION_ASSIGNMENT ( #152, #260, ( #319 ) ) ;
#144 = CARTESIAN_POINT ( 'NONE',  ( 4.000000000000000000, 0.000000000000000000, 1.000000000000000000 ) ) ;
#145 = ORIENTED_EDGE ( 'NONE', *, *, #302, .F. ) ;
#146 = CONICAL_SURFACE ( 'NONE', #185, 4.000000000000000000, 0.5235985737060565581 ) ;
#147 = CARTESIAN_POINT ( 'NONE',  ( -4.000000000000000000, 4.898587196589412829E-16, 1.000000000000000000 ) ) ;
#148 = EDGE_LOOP ( 'NONE', ( #102, #37, #111, #55 ) ) ;
#149 = DIRECTION ( 'NONE',  ( 0.000000000000000000, 0.000000000000000000, 1.000000000000000000 ) ) ;
#150 = ORIENTED_EDGE ( 'NONE', *, *, #61, .T. ) ;
#151 = CC_DESIGN_PERSON_AND_ORGANIZATION_ASSIGNMENT ( #278, #400, ( #319 ) ) ;
#152 = PERSON_AND_ORGANIZATION ( #344, #44 ) ;
#153 = DIRECTION ( 'NONE',  ( 0.000000000000000000, 0.000000000000000000, -1.000000000000000000 ) ) ;
#154 = CARTESIAN_POINT ( 'NONE',  ( -1.999999881623254927, 0.000000000000000000, 16.00000017043679890 ) ) ;
#155 = PERSON_AND_ORGANIZATION ( #344, #44 ) ;
#156 = DIRECTION ( 'NONE',  ( 0.000000000000000000, 0.000000000000000000, -1.000000000000000000 ) ) ;
#157 = LINE ( 'NONE', #59, #106 ) ;
#158 = APPROVAL_PERSON_ORGANIZATION ( #271, #179, #66 ) ;
#159 = DIRECTION ( 'NONE',  ( 0.000000000000000000, 0.000000000000000000, 1.000000000000000000 ) ) ;
#160 = ORIENTED_EDGE ( 'NONE', *, *, #384, .T. ) ;
#161 = APPROVAL_DATE_TIME ( #191, #179 ) ;
#162 = EDGE_CURVE ( 'NONE', #233, #19, #30, .T. ) ;
#163 = CIRCLE ( 'NONE', #386, 1.999999792563194490 ) ;
#164 = ADVANCED_FACE ( 'NONE', ( #401 ), #123, .T. ) ;
#165 = CALENDAR_DATE ( 2021, 25, 10 ) ;
#166 = VERTEX_POINT ( 'NONE', #69 ) ;
#167 = CARTESIAN_POINT ( 'NONE',  ( 0.000000000000000000, 0.000000000000000000, 1.000000000000000000 ) ) ;
#168 = PLANE ( 'NONE',  #223 ) ;
#169 = AXIS2_PLACEMENT_3D ( 'NONE', #167, #173, #201 ) ;
#170 = EDGE_LOOP ( 'NONE', ( #117, #291 ) ) ;
#171 = CARTESIAN_POINT ( 'NONE',  ( -3.141777999999998627, 0.000000000000000000, 14.35794600000000010 ) ) ;
#172 = ORIENTED_EDGE ( 'NONE', *, *, #52, .F. ) ;
#173 = DIRECTION ( 'NONE',  ( 0.000000000000000000, 0.000000000000000000, 1.000000000000000000 ) ) ;
#174 = VERTEX_POINT ( 'NONE', #310 ) ;
#175 = CARTESIAN_POINT ( 'NONE',  ( 1.999999881623254927, 2.449293453325004221E-16, 16.00000017043679890 ) ) ;
#176 = CIRCLE ( 'NONE', #267, 1.500000000000000000 ) ;
#177 = EDGE_LOOP ( 'NONE', ( #97, #133, #324, #403 ) ) ;
#178 = DIRECTION ( 'NONE',  ( 1.000000000000000000, 0.000000000000000000, 0.000000000000000000 ) ) ;
#179 = APPROVAL ( #342, 'UNSPECIFIED' ) ;
#180 = VERTEX_POINT ( 'NONE', #35 ) ;
#181 = DIRECTION ( 'NONE',  ( 0.000000000000000000, 0.000000000000000000, -1.000000000000000000 ) ) ;
#182 = DIRECTION ( 'NONE',  ( 0.000000000000000000, 0.000000000000000000, -1.000000000000000000 ) ) ;
#183 = AXIS2_PLACEMENT_3D ( 'NONE', #247, #153, #63 ) ;
#184 = DIRECTION ( 'NONE',  ( 0.000000000000000000, 0.000000000000000000, 1.000000000000000000 ) ) ;
#185 = AXIS2_PLACEMENT_3D ( 'NONE', #116, #229, #119 ) ;
#186 = DIRECTION ( 'NONE',  ( 1.000000000000000000, 0.000000000000000000, 0.000000000000000000 ) ) ;
#187 = CARTESIAN_POINT ( 'NONE',  ( 0.000000000000000000, 0.000000000000000000, 16.00000017043679890 ) ) ;
#188 = DIRECTION ( 'NONE',  ( 0.000000000000000000, 0.000000000000000000, 1.000000000000000000 ) ) ;
#189 = VECTOR ( 'NONE', #269, 1000.000000000000000 ) ;
#190 = CC_DESIGN_APPROVAL ( #179, ( #319 ) ) ;
#191 = DATE_AND_TIME ( #21, #328 ) ;
#192 = ORIENTED_EDGE ( 'NONE', *, *, #38, .T. ) ;
#193 = APPLICATION_CONTEXT ( 'configuration controlled 3d designs of mechanical parts and assemblies' ) ;
#194 = ADVANCED_FACE ( 'NONE', ( #279 ), #200, .F. ) ;
#195 = ORIENTED_EDGE ( 'NONE', *, *, #104, .F. ) ;
#196 = SHAPE_DEFINITION_REPRESENTATION ( #112, #36 ) ;
#197 = TOROIDAL_SURFACE ( 'NONE', #371, 1.999999881623254927, 1.999999792563194934 ) ;
#198 = EDGE_CURVE ( 'NONE', #7, #325, #213, .T. ) ;
#199 = EDGE_CURVE ( 'NONE', #140, #9, #340, .T. ) ;
#200 = CYLINDRICAL_SURFACE ( 'NONE', #318, 1.500000000000000000 ) ;
#201 = DIRECTION ( 'NONE',  ( 1.000000000000000000, 0.000000000000000000, 0.000000000000000000 ) ) ;
#202 = ORIENTED_EDGE ( 'NONE', *, *, #300, .T. ) ;
#203 = EDGE_CURVE ( 'NONE', #9, #140, #250, .T. ) ;
#204 = DIRECTION ( 'NONE',  ( -1.000000000000000000, 0.000000000000000000, 0.000000000000000000 ) ) ;
#205 = CIRCLE ( 'NONE', #218, 1.500000000000000000 ) ;
#206 = ORIENTED_EDGE ( 'NONE', *, *, #350, .T. ) ;
#207 = CARTESIAN_POINT ( 'NONE',  ( 0.000000000000000000, 0.000000000000000000, -8.673617379884030542E-16 ) ) ;
#208 = CARTESIAN_POINT ( 'NONE',  ( 3.141777999999998627, 3.847568371331571392E-16, 14.35794600000000010 ) ) ;
#209 = FACE_OUTER_BOUND ( 'NONE', #226, .T. ) ;
#210 = ADVANCED_FACE ( 'NONE', ( #407 ), #105, .T. ) ;
#211 = ORIENTED_EDGE ( 'NONE', *, *, #323, .T. ) ;
#212 = CARTESIAN_POINT ( 'NONE',  ( 0.000000000000000000, 0.000000000000000000, 16.00000017043679890 ) ) ;
#213 = CIRCLE ( 'NONE', #280, 3.141777999999999960 ) ;
#214 = ORIENTED_EDGE ( 'NONE', *, *, #96, .T. ) ;
#215 = APPLICATION_PROTOCOL_DEFINITION ( 'international standard', 'config_control_design', 1994, #90 ) ;
#216 = DIRECTION ( 'NONE',  ( 0.000000000000000000, 0.000000000000000000, 1.000000000000000000 ) ) ;
#217 = CARTESIAN_POINT ( 'NONE',  ( 3.141777999999999960, 3.847568371331572871E-16, 14.35794600000000010 ) ) ;
#218 = AXIS2_PLACEMENT_3D ( 'NONE', #137, #379, #292 ) ;
#219 = EDGE_CURVE ( 'NONE', #19, #9, #81, .T. ) ;
#220 = AXIS2_PLACEMENT_3D ( 'NONE', #301, #92, #128 ) ;
#221 = CC_DESIGN_PERSON_AND_ORGANIZATION_ASSIGNMENT ( #299, #308, ( #404 ) ) ;
#222 = APPROVAL_ROLE ( '' ) ;
#223 = AXIS2_PLACEMENT_3D ( 'NONE', #261, #259, #6 ) ;
#224 = ORIENTED_EDGE ( 'NONE', *, *, #129, .T. ) ;
#225 = DIRECTION ( 'NONE',  ( 0.000000000000000000, 0.000000000000000000, -1.000000000000000000 ) ) ;
#226 = EDGE_LOOP ( 'NONE', ( #73, #268 ) ) ;
#227 = APPROVAL_ROLE ( '' ) ;
#228 = CARTESIAN_POINT ( 'NONE',  ( 0.000000000000000000, 0.000000000000000000, 14.35794600000000010 ) ) ;
#229 = DIRECTION ( 'NONE',  ( 0.000000000000000000, 0.000000000000000000, 1.000000000000000000 ) ) ;
#230 = EDGE_LOOP ( 'NONE', ( #356, #293, #202, #145 ) ) ;
#231 = CARTESIAN_POINT ( 'NONE',  ( 0.000000000000000000, 0.000000000000000000, 11.99999996300000049 ) ) ;
#232 = ADVANCED_FACE ( 'NONE', ( #79 ), #23, .T. ) ;
#233 = VERTEX_POINT ( 'NONE', #320 ) ;
#234 = VECTOR ( 'NONE', #339, 1000.000000000000000 ) ;
#235 = FACE_OUTER_BOUND ( 'NONE', #170, .T. ) ;
#236 = VERTEX_POINT ( 'NONE', #285 ) ;
#237 = DIRECTION ( 'NONE',  ( 0.000000000000000000, 0.000000000000000000, 1.000000000000000000 ) ) ;
#238 = ORIENTED_EDGE ( 'NONE', *, *, #219, .F. ) ;
#239 = DIRECTION ( 'NONE',  ( -1.000000000000000000, 0.000000000000000000, 0.000000000000000000 ) ) ;
#240 = ADVANCED_FACE ( 'NONE', ( #209 ), #168, .T. ) ;
#241 = ADVANCED_FACE ( 'NONE', ( #290 ), #114, .F. ) ;
#242 = VECTOR ( 'NONE', #216, 1000.000000000000000 ) ;
#243 = CARTESIAN_POINT ( 'NONE',  ( -1.500000000000000000, 1.836970198721029934E-16, 11.99999996300000049 ) ) ;
#244 = CC_DESIGN_PERSON_AND_ORGANIZATION_ASSIGNMENT ( #396, #87, ( #311 ) ) ;
#245 = CIRCLE ( 'NONE', #273, 1.500000000000000000 ) ;
#246 = AXIS2_PLACEMENT_3D ( 'NONE', #231, #237, #359 ) ;
#247 = CARTESIAN_POINT ( 'NONE',  ( 0.000000000000000000, 0.000000000000000000, 12.00000000000000000 ) ) ;
#248 = CALENDAR_DATE ( 2021, 25, 10 ) ;
#249 = CIRCLE ( 'NONE', #183, 4.000000000000000000 ) ;
#250 = CIRCLE ( 'NONE', #306, 4.000000000000000000 ) ;
#251 = LOCAL_TIME ( 9, 28, 26.00000000000000000, #134 ) ;
#252 = CARTESIAN_POINT ( 'NONE',  ( 0.000000000000000000, 0.000000000000000000, 1.000000000000000000 ) ) ;
#253 = EDGE_LOOP ( 'NONE', ( #375, #360, #214, #378 ) ) ;
#254 = DIRECTION ( 'NONE',  ( -1.000000000000000000, 0.000000000000000000, 0.000000000000000000 ) ) ;
#255 = DESIGN_CONTEXT ( 'detailed design', #90, 'design' ) ;
#256 = COORDINATED_UNIVERSAL_TIME_OFFSET ( 9, 0, .AHEAD. ) ;
#257 = AXIS2_PLACEMENT_3D ( 'NONE', #101, #283, #32 ) ;
#258 = CC_DESIGN_SECURITY_CLASSIFICATION ( #138, ( #319 ) ) ;
#259 = DIRECTION ( 'NONE',  ( 0.000000000000000000, 0.000000000000000000, 1.000000000000000000 ) ) ;
#260 = PERSON_AND_ORGANIZATION_ROLE ( 'design_supplier' ) ;
#261 = CARTESIAN_POINT ( 'NONE',  ( 0.000000000000000000, 0.000000000000000000, 11.99999996300000049 ) ) ;
#262 = ORIENTED_EDGE ( 'NONE', *, *, #129, .F. ) ;
#263 = DIRECTION ( 'NONE',  ( -1.000000000000000000, 0.000000000000000000, 0.000000000000000000 ) ) ;
#264 = ORIENTED_EDGE ( 'NONE', *, *, #384, .F. ) ;
#265 = ADVANCED_FACE ( 'NONE', ( #139 ), #197, .T. ) ;
#266 = DIRECTION ( 'NONE',  ( 0.4999998251561791340, 0.000000000000000000, 0.8660255047305421838 ) ) ;
#267 = AXIS2_PLACEMENT_3D ( 'NONE', #56, #103, #186 ) ;
#268 = ORIENTED_EDGE ( 'NONE', *, *, #104, .T. ) ;
#269 = DIRECTION ( 'NONE',  ( -0.4999998251561791340, 6.123231854517510106E-17, 0.8660255047305421838 ) ) ;
#270 = CYLINDRICAL_SURFACE ( 'NONE', #286, 4.000000000000000000 ) ;
#271 = PERSON_AND_ORGANIZATION ( #344, #44 ) ;
#272 = CARTESIAN_POINT ( 'NONE',  ( 1.500000000000000000, 0.000000000000000000, 17.99999996299999694 ) ) ;
#273 = AXIS2_PLACEMENT_3D ( 'NONE', #29, #184, #28 ) ;
#274 = ADVANCED_FACE ( 'NONE', ( #8, #235 ), #355, .F. ) ;
#275 = FACE_OUTER_BOUND ( 'NONE', #148, .T. ) ;
#276 = DATE_AND_TIME ( #91, #53 ) ;
#277 = CARTESIAN_POINT ( 'NONE',  ( -1.999999881473059959, 0.000000000000000000, 17.99999996299999694 ) ) ;
#278 = PERSON_AND_ORGANIZATION ( #344, #44 ) ;
#279 = FACE_OUTER_BOUND ( 'NONE', #49, .T. ) ;
#280 = AXIS2_PLACEMENT_3D ( 'NONE', #33, #225, #368 ) ;
#281 = CC_DESIGN_DATE_AND_TIME_ASSIGNMENT ( #34, #315, ( #138 ) ) ;
#282 = ADVANCED_FACE ( 'NONE', ( #295 ), #77, .F. ) ;
#283 = DIRECTION ( 'NONE',  ( 0.000000000000000000, 0.000000000000000000, -1.000000000000000000 ) ) ;
#284 = ORIENTED_EDGE ( 'NONE', *, *, #162, .F. ) ;
#285 = CARTESIAN_POINT ( 'NONE',  ( -4.000000000000000000, 0.000000000000000000, 12.00000000000000000 ) ) ;
#286 = AXIS2_PLACEMENT_3D ( 'NONE', #390, #120, #367 ) ;
#287 = APPROVAL_STATUS ( 'not_yet_approved' ) ;
#288 = DIRECTION ( 'NONE',  ( -0.3420200877224304770, 0.000000000000000000, -0.9396926410238300997 ) ) ;
#289 = ORIENTED_EDGE ( 'NONE', *, *, #52, .T. ) ;
#290 = FACE_OUTER_BOUND ( 'NONE', #12, .T. ) ;
#291 = ORIENTED_EDGE ( 'NONE', *, *, #38, .F. ) ;
#292 = DIRECTION ( 'NONE',  ( 1.000000000000000000, 0.000000000000000000, 0.000000000000000000 ) ) ;
#293 = ORIENTED_EDGE ( 'NONE', *, *, #198, .T. ) ;
#294 = AXIS2_PLACEMENT_3D ( 'NONE', #74, #357, #39 ) ;
#295 = FACE_OUTER_BOUND ( 'NONE', #298, .T. ) ;
#296 = CARTESIAN_POINT ( 'NONE',  ( -4.000000000000000000, 0.000000000000000000, 1.000000000000000000 ) ) ;
#297 = MECHANICAL_CONTEXT ( 'NONE', #193, 'mechanical' ) ;
#298 = EDGE_LOOP ( 'NONE', ( #358, #206 ) ) ;
#299 = PERSON_AND_ORGANIZATION ( #344, #44 ) ;
#300 = EDGE_CURVE ( 'NONE', #325, #236, #376, .T. ) ;
#301 = CARTESIAN_POINT ( 'NONE',  ( 0.000000000000000000, 0.000000000000000000, 17.99999996299999694 ) ) ;
#302 = EDGE_CURVE ( 'NONE', #75, #236, #64, .T. ) ;
#303 = AXIS2_PLACEMENT_3D ( 'NONE', #316, #110, #239 ) ;
#304 = DIRECTION ( 'NONE',  ( 1.000000000000000000, 0.000000000000000000, 0.000000000000000000 ) ) ;
#305 = APPROVAL ( #132, 'UNSPECIFIED' ) ;
#306 = AXIS2_PLACEMENT_3D ( 'NONE', #252, #130, #307 ) ;
#307 = DIRECTION ( 'NONE',  ( -1.000000000000000000, 0.000000000000000000, 0.000000000000000000 ) ) ;
#308 = PERSON_AND_ORGANIZATION_ROLE ( 'design_owner' ) ;
#309 = MANIFOLD_SOLID_BREP ( 'Imported1', #361 ) ;
#310 = CARTESIAN_POINT ( 'NONE',  ( 1.999999881473059959, 3.148430912236320183E-16, 17.99999996299999694 ) ) ;
#311 = PRODUCT_DEFINITION ( 'UNKNOWN', '', #319, #255 ) ;
#312 = ORIENTED_EDGE ( 'NONE', *, *, #199, .T. ) ;
#313 = PERSON_AND_ORGANIZATION ( #344, #44 ) ;
#314 = AXIS2_PLACEMENT_3D ( 'NONE', #372, #24, #31 ) ;
#315 = DATE_TIME_ROLE ( 'classification_date' ) ;
#316 = CARTESIAN_POINT ( 'NONE',  ( 0.000000000000000000, 0.000000000000000000, -1.734723475976804925E-15 ) ) ;
#317 = ORIENTED_EDGE ( 'NONE', *, *, #323, .F. ) ;
#318 = AXIS2_PLACEMENT_3D ( 'NONE', #370, #159, #135 ) ;
#319 = PRODUCT_DEFINITION_FORMATION_WITH_SPECIFIED_SOURCE ( 'ANY', '', #404, .NOT_KNOWN. ) ;
#320 = CARTESIAN_POINT ( 'NONE',  ( 3.422649999999999970, 0.000000000000000000, -1.734723475976804925E-15 ) ) ;
#321 = VERTEX_POINT ( 'NONE', #2 ) ;
#322 = DIRECTION ( 'NONE',  ( 1.000000000000000000, 0.000000000000000000, 0.000000000000000000 ) ) ;
#323 = EDGE_CURVE ( 'NONE', #166, #109, #205, .T. ) ;
#324 = ORIENTED_EDGE ( 'NONE', *, *, #89, .F. ) ;
#325 = VERTEX_POINT ( 'NONE', #171 ) ;
#326 = AXIS2_PLACEMENT_3D ( 'NONE', #57, #181, #254 ) ;
#327 = COORDINATED_UNIVERSAL_TIME_OFFSET ( 9, 0, .AHEAD. ) ;
#328 = LOCAL_TIME ( 9, 28, 26.00000000000000000, #327 ) ;
#329 = ORIENTED_EDGE ( 'NONE', *, *, #198, .F. ) ;
#330 = CARTESIAN_POINT ( 'NONE',  ( 4.000000000000000000, 4.898587196589412829E-16, 1.000000000000000000 ) ) ;
#331 = COORDINATED_UNIVERSAL_TIME_OFFSET ( 9, 0, .AHEAD. ) ;
#332 = CARTESIAN_POINT ( 'NONE',  ( -3.422649999999999970, 4.545062281845550072E-16, -1.734723475976804925E-15 ) ) ;
#333 = EDGE_CURVE ( 'NONE', #80, #174, #3, .T. ) ;
#334 = APPLICATION_PROTOCOL_DEFINITION ( 'international standard', 'config_control_design', 1994, #193 ) ;
#335 = AXIS2_PLACEMENT_3D ( 'NONE', #207, #72, #322 ) ;
#336 = LINE ( 'NONE', #60, #98 ) ;
#337 = CARTESIAN_POINT ( 'NONE',  ( 0.000000000000000000, 0.000000000000000000, 14.35794600000000010 ) ) ;
#338 = CC_DESIGN_PERSON_AND_ORGANIZATION_ASSIGNMENT ( #313, #347, ( #138 ) ) ;
#339 = DIRECTION ( 'NONE',  ( 0.000000000000000000, 0.000000000000000000, -1.000000000000000000 ) ) ;
#340 = CIRCLE ( 'NONE', #257, 4.000000000000000000 ) ;
#341 = EDGE_LOOP ( 'NONE', ( #46, #150, #42, #78 ) ) ;
#342 = APPROVAL_STATUS ( 'not_yet_approved' ) ;
#343 = EDGE_CURVE ( 'NONE', #233, #140, #47, .T. ) ;
#344 = PERSON ( 'UNSPECIFIED', 'UNSPECIFIED', 'UNSPECIFIED', ('UNSPECIFIED'), ('UNSPECIFIED'), ('UNSPECIFIED') ) ;
#345 = CALENDAR_DATE ( 2021, 25, 10 ) ;
#346 = AXIS2_PLACEMENT_3D ( 'NONE', #175, #351, #395 ) ;
#347 = PERSON_AND_ORGANIZATION_ROLE ( 'classification_officer' ) ;
#348 = LOCAL_TIME ( 9, 28, 26.00000000000000000, #256 ) ;
#349 = DIRECTION ( 'NONE',  ( 0.000000000000000000, 0.000000000000000000, -1.000000000000000000 ) ) ;
#350 = EDGE_CURVE ( 'NONE', #19, #233, #126, .T. ) ;
#351 = DIRECTION ( 'NONE',  ( -1.224646799147353207E-16, 1.000000000000000000, 0.000000000000000000 ) ) ;
#352 = DIRECTION ( 'NONE',  ( 0.000000000000000000, 0.000000000000000000, -1.000000000000000000 ) ) ;
#353 = TOROIDAL_SURFACE ( 'NONE', #71, 1.999999881623254927, 1.999999792563194934 ) ;
#354 = EDGE_LOOP ( 'NONE', ( #40, #82, #381, #142 ) ) ;
#355 = PLANE ( 'NONE',  #294 ) ;
#356 = ORIENTED_EDGE ( 'NONE', *, *, #391, .F. ) ;
#357 = DIRECTION ( 'NONE',  ( 0.000000000000000000, 0.000000000000000000, -1.000000000000000000 ) ) ;
#358 = ORIENTED_EDGE ( 'NONE', *, *, #162, .T. ) ;
#359 = DIRECTION ( 'NONE',  ( 1.000000000000000000, 0.000000000000000000, 0.000000000000000000 ) ) ;
#360 = ORIENTED_EDGE ( 'NONE', *, *, #302, .T. ) ;
#361 = CLOSED_SHELL ( 'NONE', ( #194, #232, #210, #164, #68, #274, #265, #382, #17, #373, #282, #241, #240 ) ) ;
#362 = AXIS2_PLACEMENT_3D ( 'NONE', #113, #15, #383 ) ;
#363 = CARTESIAN_POINT ( 'NONE',  ( 0.000000000000000000, 0.000000000000000000, 0.000000000000000000 ) ) ;
#364 = CC_DESIGN_APPROVAL ( #20, ( #138 ) ) ;
#365 = DIRECTION ( 'NONE',  ( 0.000000000000000000, 0.000000000000000000, 1.000000000000000000 ) ) ;
#366 =( NAMED_UNIT ( * ) SI_UNIT ( $, .STERADIAN. ) SOLID_ANGLE_UNIT ( ) );
#367 = DIRECTION ( 'NONE',  ( -1.000000000000000000, 0.000000000000000000, 0.000000000000000000 ) ) ;
#368 = DIRECTION ( 'NONE',  ( -1.000000000000000000, 0.000000000000000000, 0.000000000000000000 ) ) ;
#369 = DATE_AND_TIME ( #248, #94 ) ;
#370 = CARTESIAN_POINT ( 'NONE',  ( 0.000000000000000000, 0.000000000000000000, 11.99999996300000049 ) ) ;
#371 = AXIS2_PLACEMENT_3D ( 'NONE', #212, #352, #204 ) ;
#372 = CARTESIAN_POINT ( 'NONE',  ( 0.000000000000000000, 0.000000000000000000, 14.35794600000000010 ) ) ;
#373 = ADVANCED_FACE ( 'NONE', ( #387 ), #146, .T. ) ;
#374 = EDGE_CURVE ( 'NONE', #174, #7, #115, .T. ) ;
#375 = ORIENTED_EDGE ( 'NONE', *, *, #61, .F. ) ;
#376 = LINE ( 'NONE', #50, #14 ) ;
#377 = EDGE_CURVE ( 'NONE', #80, #325, #163, .T. ) ;
#378 = ORIENTED_EDGE ( 'NONE', *, *, #199, .F. ) ;
#379 = DIRECTION ( 'NONE',  ( 0.000000000000000000, 0.000000000000000000, 1.000000000000000000 ) ) ;
#380 = UNCERTAINTY_MEASURE_WITH_UNIT (LENGTH_MEASURE( 1.000000000000000082E-05 ), #124, 'distance_accuracy_value', 'NONE');
#381 = ORIENTED_EDGE ( 'NONE', *, *, #203, .T. ) ;
#382 = ADVANCED_FACE ( 'NONE', ( #54 ), #93, .T. ) ;
#383 = DIRECTION ( 'NONE',  ( -1.000000000000000000, 0.000000000000000000, 0.000000000000000000 ) ) ;
#384 = EDGE_CURVE ( 'NONE', #109, #166, #176, .T. ) ;
#385 = EDGE_LOOP ( 'NONE', ( #65, #192, #388, #329 ) ) ;
#386 = AXIS2_PLACEMENT_3D ( 'NONE', #154, #392, #182 ) ;
#387 = FACE_OUTER_BOUND ( 'NONE', #1, .T. ) ;
#388 = ORIENTED_EDGE ( 'NONE', *, *, #377, .T. ) ;
#389 = DIRECTION ( 'NONE',  ( 0.000000000000000000, 0.000000000000000000, -1.000000000000000000 ) ) ;
#390 = CARTESIAN_POINT ( 'NONE',  ( 0.000000000000000000, 0.000000000000000000, -3.707007570660325158 ) ) ;
#391 = EDGE_CURVE ( 'NONE', #7, #75, #58, .T. ) ;
#392 = DIRECTION ( 'NONE',  ( -0.000000000000000000, -1.000000000000000000, -0.000000000000000000 ) ) ;
#393 = CARTESIAN_POINT ( 'NONE',  ( 0.000000000000000000, 0.000000000000000000, 11.99999996300000049 ) ) ;
#394 = APPROVAL_DATE_TIME ( #276, #305 ) ;
#395 = DIRECTION ( 'NONE',  ( -1.000000000000000000, -1.224646799147353207E-16, 0.000000000000000000 ) ) ;
#396 = PERSON_AND_ORGANIZATION ( #344, #44 ) ;
#397 = VECTOR ( 'NONE', #85, 1000.000000000000227 ) ;
#398 = DIRECTION ( 'NONE',  ( -1.000000000000000000, 0.000000000000000000, 0.000000000000000000 ) ) ;
#399 = DIRECTION ( 'NONE',  ( -1.000000000000000000, 0.000000000000000000, 0.000000000000000000 ) ) ;
#400 = PERSON_AND_ORGANIZATION_ROLE ( 'creator' ) ;
#401 = FACE_OUTER_BOUND ( 'NONE', #177, .T. ) ;
#402 = CIRCLE ( 'NONE', #43, 1.500000000000000000 ) ;
#403 = ORIENTED_EDGE ( 'NONE', *, *, #300, .F. ) ;
#404 = PRODUCT ( 'bj790-08001', 'bj790-08001', '', ( #297 ) ) ;
#405 = AXIS2_PLACEMENT_3D ( 'NONE', #363, #149, #178 ) ;
#406 = SECURITY_CLASSIFICATION_LEVEL ( 'unclassified' ) ;
#407 = FACE_OUTER_BOUND ( 'NONE', #341, .T. ) ;
ENDSEC;
END-ISO-10303-21;
