ISO-10303-21;
HEADER;
FILE_DESCRIPTION (( 'STEP AP203' ),
    '1' );
FILE_NAME ('bj712-12020.STEP',
    '2021-10-24T23:58:53',
    ( '' ),
    ( '' ),
    'SwSTEP 2.0',
    'SolidWorks 2020',
    '' );
FILE_SCHEMA (( 'CONFIG_CONTROL_DESIGN' ));
ENDSEC;

DATA;
#1 = DIRECTION ( 'NONE',  ( 0.000000000000000000, 0.000000000000000000, 1.000000000000000000 ) ) ;
#2 = DIRECTION ( 'NONE',  ( 1.000000000000000000, -1.301042606982603842E-16, 0.000000000000000000 ) ) ;
#3 = FACE_OUTER_BOUND ( 'NONE', #124, .T. ) ;
#4 = LINE ( 'NONE', #189, #34 ) ;
#5 = CIRCLE ( 'NONE', #139, 4.750000000000000000 ) ;
#6 = CARTESIAN_POINT ( 'NONE',  ( -10.00000000000000000, 6.000000000000000000, 8.000000000000000000 ) ) ;
#7 = CARTESIAN_POINT ( 'NONE',  ( 2.750000000000000000, 0.000000000000000000, 2.600000000000000089 ) ) ;
#8 = CARTESIAN_POINT ( 'NONE',  ( 4.750000000000000000, 0.000000000000000000, 8.000000000000000000 ) ) ;
#9 = CARTESIAN_POINT ( 'NONE',  ( -10.00000000000000000, -6.000000000000000000, 0.000000000000000000 ) ) ;
#10 = APPROVAL_ROLE ( '' ) ;
#11 = CARTESIAN_POINT ( 'NONE',  ( -2.750000000000000000, 3.367778697655221012E-16, 2.600000000000000089 ) ) ;
#12 = PRODUCT_RELATED_PRODUCT_CATEGORY ( 'detail', '', ( #95 ) ) ;
#13 = ORIENTED_EDGE ( 'NONE', *, *, #367, .T. ) ;
#14 = CALENDAR_DATE ( 2021, 25, 10 ) ;
#15 = AXIS2_PLACEMENT_3D ( 'NONE', #86, #292, #266 ) ;
#16 = EDGE_LOOP ( 'NONE', ( #213, #240, #173, #171 ) ) ;
#17 = ADVANCED_FACE ( 'NONE', ( #19 ), #324, .F. ) ;
#18 = PERSON_AND_ORGANIZATION ( #207, #41 ) ;
#19 = FACE_OUTER_BOUND ( 'NONE', #338, .T. ) ;
#20 = VERTEX_POINT ( 'NONE', #141 ) ;
#21 = PERSON_AND_ORGANIZATION ( #207, #41 ) ;
#22 = VERTEX_POINT ( 'NONE', #152 ) ;
#23 = CIRCLE ( 'NONE', #231, 2.750000000000000000 ) ;
#24 = CARTESIAN_POINT ( 'NONE',  ( 0.000000000000000000, 0.000000000000000000, -6.938893903907229955E-15 ) ) ;
#25 = DIRECTION ( 'NONE',  ( -1.301042606982603842E-16, -1.000000000000000000, 0.000000000000000000 ) ) ;
#26 = DATE_AND_TIME ( #60, #217 ) ;
#27 = ORIENTED_EDGE ( 'NONE', *, *, #157, .T. ) ;
#28 = DIRECTION ( 'NONE',  ( 0.000000000000000000, 0.000000000000000000, 1.000000000000000000 ) ) ;
#29 = EDGE_CURVE ( 'NONE', #58, #282, #235, .T. ) ;
#30 = ORIENTED_EDGE ( 'NONE', *, *, #45, .F. ) ;
#31 = DIRECTION ( 'NONE',  ( 1.000000000000000000, 0.000000000000000000, 0.000000000000000000 ) ) ;
#32 = ORIENTED_EDGE ( 'NONE', *, *, #184, .T. ) ;
#33 = EDGE_LOOP ( 'NONE', ( #118, #85 ) ) ;
#34 = VECTOR ( 'NONE', #163, 1000.000000000000000 ) ;
#35 = EDGE_CURVE ( 'NONE', #310, #20, #372, .T. ) ;
#36 = CC_DESIGN_PERSON_AND_ORGANIZATION_ASSIGNMENT ( #351, #122, ( #237 ) ) ;
#37 = DIRECTION ( 'NONE',  ( 0.000000000000000000, 0.000000000000000000, 1.000000000000000000 ) ) ;
#38 = DIRECTION ( 'NONE',  ( -1.000000000000000000, 0.000000000000000000, 0.000000000000000000 ) ) ;
#39 = ADVANCED_FACE ( 'NONE', ( #300, #303 ), #245, .T. ) ;
#40 = LINE ( 'NONE', #365, #77 ) ;
#41 = ORGANIZATION ( 'UNSPECIFIED', 'UNSPECIFIED', '' ) ;
#42 = LINE ( 'NONE', #8, #298 ) ;
#43 = EDGE_CURVE ( 'NONE', #120, #350, #267, .T. ) ;
#44 = EDGE_CURVE ( 'NONE', #350, #22, #212, .T. ) ;
#45 = EDGE_CURVE ( 'NONE', #55, #380, #42, .T. ) ;
#46 = PERSON_AND_ORGANIZATION ( #207, #41 ) ;
#47 = CARTESIAN_POINT ( 'NONE',  ( 0.000000000000000000, 0.000000000000000000, 0.000000000000000000 ) ) ;
#48 = DIRECTION ( 'NONE',  ( 1.445602896647339903E-16, 1.000000000000000000, 0.000000000000000000 ) ) ;
#49 = DIRECTION ( 'NONE',  ( 1.445602896647339903E-16, 1.000000000000000000, 0.000000000000000000 ) ) ;
#50 = CC_DESIGN_APPROVAL ( #296, ( #237 ) ) ;
#51 = CARTESIAN_POINT ( 'NONE',  ( 0.000000000000000000, 0.000000000000000000, -6.938893903907229955E-15 ) ) ;
#52 = ORIENTED_EDGE ( 'NONE', *, *, #280, .T. ) ;
#53 = CARTESIAN_POINT ( 'NONE',  ( -10.00000000000000000, -6.000000000000000000, 8.000000000000000000 ) ) ;
#54 = LINE ( 'NONE', #252, #223 ) ;
#55 = VERTEX_POINT ( 'NONE', #370 ) ;
#56 = VERTEX_POINT ( 'NONE', #65 ) ;
#57 = APPROVAL_DATE_TIME ( #147, #288 ) ;
#58 = VERTEX_POINT ( 'NONE', #69 ) ;
#59 = LOCAL_TIME ( 8, 58, 53.00000000000000000, #329 ) ;
#60 = CALENDAR_DATE ( 2021, 25, 10 ) ;
#61 = ORIENTED_EDGE ( 'NONE', *, *, #181, .T. ) ;
#62 = DIRECTION ( 'NONE',  ( 1.000000000000000000, 0.000000000000000000, 0.000000000000000000 ) ) ;
#63 = LINE ( 'NONE', #363, #286 ) ;
#64 = CARTESIAN_POINT ( 'NONE',  ( 0.000000000000000000, 0.000000000000000000, 8.000000000000000000 ) ) ;
#65 = CARTESIAN_POINT ( 'NONE',  ( 2.750000000000000000, 0.000000000000000000, 2.600000000000000089 ) ) ;
#66 = AXIS2_PLACEMENT_3D ( 'NONE', #113, #104, #294 ) ;
#67 = DIRECTION ( 'NONE',  ( -1.000000000000000000, 1.301042606982603842E-16, 0.000000000000000000 ) ) ;
#68 = EDGE_CURVE ( 'NONE', #380, #295, #327, .T. ) ;
#69 = CARTESIAN_POINT ( 'NONE',  ( 10.00000000000000000, 6.000000000000000000, 0.000000000000000000 ) ) ;
#70 = CC_DESIGN_APPROVAL ( #288, ( #99 ) ) ;
#71 = CC_DESIGN_DATE_AND_TIME_ASSIGNMENT ( #96, #206, ( #99 ) ) ;
#72 = EDGE_CURVE ( 'NONE', #230, #58, #40, .T. ) ;
#73 = PERSON_AND_ORGANIZATION ( #207, #41 ) ;
#74 = ADVANCED_FACE ( 'NONE', ( #347 ), #359, .F. ) ;
#75 = AXIS2_PLACEMENT_3D ( 'NONE', #148, #28, #126 ) ;
#76 = DIRECTION ( 'NONE',  ( 1.000000000000000000, 0.000000000000000000, 0.000000000000000000 ) ) ;
#77 = VECTOR ( 'NONE', #142, 1000.000000000000000 ) ;
#78 = VERTEX_POINT ( 'NONE', #328 ) ;
#79 = MECHANICAL_CONTEXT ( 'NONE', #385, 'mechanical' ) ;
#80 = VERTEX_POINT ( 'NONE', #114 ) ;
#81 = DIRECTION ( 'NONE',  ( 0.000000000000000000, 0.000000000000000000, 1.000000000000000000 ) ) ;
#82 = PERSON_AND_ORGANIZATION ( #207, #41 ) ;
#83 = PRODUCT_DEFINITION_FORMATION_WITH_SPECIFIED_SOURCE ( 'ANY', '', #95, .NOT_KNOWN. ) ;
#84 = ORIENTED_EDGE ( 'NONE', *, *, #102, .F. ) ;
#85 = ORIENTED_EDGE ( 'NONE', *, *, #332, .T. ) ;
#86 = CARTESIAN_POINT ( 'NONE',  ( 0.000000000000000000, 0.000000000000000000, 8.000000000000000000 ) ) ;
#87 = APPROVAL_DATE_TIME ( #26, #296 ) ;
#88 = CARTESIAN_POINT ( 'NONE',  ( -10.00000000000000000, 6.000000000000000000, 0.000000000000000000 ) ) ;
#89 = ADVANCED_FACE ( 'NONE', ( #228 ), #345, .F. ) ;
#90 = CALENDAR_DATE ( 2021, 25, 10 ) ;
#91 = DIRECTION ( 'NONE',  ( -1.000000000000000000, 1.445602896647339903E-16, 0.000000000000000000 ) ) ;
#92 = ORIENTED_EDGE ( 'NONE', *, *, #165, .F. ) ;
#93 = VECTOR ( 'NONE', #202, 1000.000000000000000 ) ;
#94 = LINE ( 'NONE', #355, #272 ) ;
#95 = PRODUCT ( 'bj712-12020', 'bj712-12020', '', ( #79 ) ) ;
#96 = DATE_AND_TIME ( #354, #185 ) ;
#97 = CYLINDRICAL_SURFACE ( 'NONE', #130, 4.750000000000000000 ) ;
#98 = CARTESIAN_POINT ( 'NONE',  ( 0.000000000000000000, 0.000000000000000000, 8.000000000000000000 ) ) ;
#99 = PRODUCT_DEFINITION ( 'UNKNOWN', '', #83, #214 ) ;
#100 = APPLICATION_CONTEXT ( 'configuration controlled 3d designs of mechanical parts and assemblies' ) ;
#101 = VECTOR ( 'NONE', #336, 1000.000000000000000 ) ;
#102 = EDGE_CURVE ( 'NONE', #230, #120, #379, .T. ) ;
#103 = DIRECTION ( 'NONE',  ( -1.445602896647339903E-16, -1.000000000000000000, 0.000000000000000000 ) ) ;
#104 = DIRECTION ( 'NONE',  ( 0.000000000000000000, 0.000000000000000000, 1.000000000000000000 ) ) ;
#105 = UNCERTAINTY_MEASURE_WITH_UNIT (LENGTH_MEASURE( 1.000000000000000082E-05 ), #109, 'distance_accuracy_value', 'NONE');
#106 = DIRECTION ( 'NONE',  ( -1.000000000000000000, 1.301042606982603842E-16, 0.000000000000000000 ) ) ;
#107 = EDGE_LOOP ( 'NONE', ( #238, #319 ) ) ;
#108 = CARTESIAN_POINT ( 'NONE',  ( 10.00000000000000000, -6.000000000000000000, 8.000000000000000000 ) ) ;
#109 =( LENGTH_UNIT ( ) NAMED_UNIT ( * ) SI_UNIT ( .MILLI., .METRE. ) );
#110 = ADVANCED_FACE ( 'NONE', ( #373, #371 ), #269, .T. ) ;
#111 = LOCAL_TIME ( 8, 58, 53.00000000000000000, #277 ) ;
#112 = LINE ( 'NONE', #108, #133 ) ;
#113 = CARTESIAN_POINT ( 'NONE',  ( 0.000000000000000000, 0.000000000000000000, 2.600000000000000089 ) ) ;
#114 = CARTESIAN_POINT ( 'NONE',  ( 2.750000000000000000, 0.000000000000000000, -6.938893903907229955E-15 ) ) ;
#115 = CALENDAR_DATE ( 2021, 25, 10 ) ;
#116 = AXIS2_PLACEMENT_3D ( 'NONE', #243, #227, #48 ) ;
#117 = COORDINATED_UNIVERSAL_TIME_OFFSET ( 9, 0, .AHEAD. ) ;
#118 = ORIENTED_EDGE ( 'NONE', *, *, #200, .T. ) ;
#119 = ORIENTED_EDGE ( 'NONE', *, *, #29, .T. ) ;
#120 = VERTEX_POINT ( 'NONE', #215 ) ;
#121 = CC_DESIGN_PERSON_AND_ORGANIZATION_ASSIGNMENT ( #21, #143, ( #83 ) ) ;
#122 = PERSON_AND_ORGANIZATION_ROLE ( 'classification_officer' ) ;
#123 = VERTEX_POINT ( 'NONE', #246 ) ;
#124 = EDGE_LOOP ( 'NONE', ( #150, #129, #13, #30 ) ) ;
#125 = APPROVAL_PERSON_ORGANIZATION ( #82, #296, #346 ) ;
#126 = DIRECTION ( 'NONE',  ( 1.000000000000000000, 0.000000000000000000, 0.000000000000000000 ) ) ;
#127 = ORIENTED_EDGE ( 'NONE', *, *, #181, .F. ) ;
#128 = CLOSED_SHELL ( 'NONE', ( #186, #281, #309, #39, #155, #74, #17, #369, #270, #110, #89 ) ) ;
#129 = ORIENTED_EDGE ( 'NONE', *, *, #358, .T. ) ;
#130 = AXIS2_PLACEMENT_3D ( 'NONE', #64, #241, #209 ) ;
#131 = VECTOR ( 'NONE', #67, 1000.000000000000000 ) ;
#132 = DIRECTION ( 'NONE',  ( 0.000000000000000000, 0.000000000000000000, 1.000000000000000000 ) ) ;
#133 = VECTOR ( 'NONE', #49, 1000.000000000000000 ) ;
#134 = CARTESIAN_POINT ( 'NONE',  ( 10.00000000000000000, -6.000000000000000000, 8.000000000000000000 ) ) ;
#135 = CARTESIAN_POINT ( 'NONE',  ( -10.00000000000000000, -6.000000000000000000, 8.000000000000000000 ) ) ;
#136 = DIRECTION ( 'NONE',  ( -1.000000000000000000, 0.000000000000000000, 0.000000000000000000 ) ) ;
#137 = ORIENTED_EDGE ( 'NONE', *, *, #384, .F. ) ;
#138 = APPLICATION_PROTOCOL_DEFINITION ( 'international standard', 'config_control_design', 1994, #385 ) ;
#139 = AXIS2_PLACEMENT_3D ( 'NONE', #331, #176, #340 ) ;
#140 = DIRECTION ( 'NONE',  ( 0.000000000000000000, 0.000000000000000000, 1.000000000000000000 ) ) ;
#141 = CARTESIAN_POINT ( 'NONE',  ( 10.00000000000000000, -6.000000000000000000, 0.000000000000000000 ) ) ;
#142 = DIRECTION ( 'NONE',  ( 0.000000000000000000, 0.000000000000000000, -1.000000000000000000 ) ) ;
#143 = PERSON_AND_ORGANIZATION_ROLE ( 'design_supplier' ) ;
#144 = ORIENTED_EDGE ( 'NONE', *, *, #35, .F. ) ;
#145 = ORIENTED_EDGE ( 'NONE', *, *, #72, .F. ) ;
#146 = EDGE_LOOP ( 'NONE', ( #175, #360, #52, #256 ) ) ;
#147 = DATE_AND_TIME ( #14, #111 ) ;
#148 = CARTESIAN_POINT ( 'NONE',  ( 0.000000000000000000, 0.000000000000000000, 2.600000000000000089 ) ) ;
#149 = CARTESIAN_POINT ( 'NONE',  ( 2.750000000000000000, 0.000000000000000000, 8.000000000000000000 ) ) ;
#150 = ORIENTED_EDGE ( 'NONE', *, *, #332, .F. ) ;
#151 = MANIFOLD_SOLID_BREP ( 'Imported1', #128 ) ;
#152 = CARTESIAN_POINT ( 'NONE',  ( -10.00000000000000000, -6.000000000000000000, 0.000000000000000000 ) ) ;
#153 = LINE ( 'NONE', #149, #253 ) ;
#154 = DIRECTION ( 'NONE',  ( 1.000000000000000000, 0.000000000000000000, 0.000000000000000000 ) ) ;
#155 = ADVANCED_FACE ( 'NONE', ( #302 ), #229, .F. ) ;
#156 = AXIS2_PLACEMENT_3D ( 'NONE', #7, #390, #179 ) ;
#157 = EDGE_CURVE ( 'NONE', #78, #80, #23, .T. ) ;
#158 = DIRECTION ( 'NONE',  ( 1.000000000000000000, 0.000000000000000000, 0.000000000000000000 ) ) ;
#159 = EDGE_LOOP ( 'NONE', ( #198, #315, #386, #197 ) ) ;
#160 = CC_DESIGN_SECURITY_CLASSIFICATION ( #237, ( #83 ) ) ;
#161 = DIRECTION ( 'NONE',  ( 0.000000000000000000, 0.000000000000000000, 1.000000000000000000 ) ) ;
#162 = ORIENTED_EDGE ( 'NONE', *, *, #216, .T. ) ;
#163 = DIRECTION ( 'NONE',  ( 1.000000000000000000, 0.000000000000000000, 0.000000000000000000 ) ) ;
#164 = CARTESIAN_POINT ( 'NONE',  ( 0.000000000000000000, 0.000000000000000000, 8.000000000000000000 ) ) ;
#165 = EDGE_CURVE ( 'NONE', #282, #22, #258, .T. ) ;
#166 = AXIS2_PLACEMENT_3D ( 'NONE', #164, #271, #158 ) ;
#167 = FACE_BOUND ( 'NONE', #107, .T. ) ;
#168 = DIRECTION ( 'NONE',  ( 1.000000000000000000, 0.000000000000000000, 0.000000000000000000 ) ) ;
#169 = PERSON_AND_ORGANIZATION_ROLE ( 'creator' ) ;
#170 = ORIENTED_EDGE ( 'NONE', *, *, #43, .F. ) ;
#171 = ORIENTED_EDGE ( 'NONE', *, *, #43, .T. ) ;
#172 = PERSON_AND_ORGANIZATION ( #207, #41 ) ;
#173 = ORIENTED_EDGE ( 'NONE', *, *, #102, .T. ) ;
#174 = EDGE_LOOP ( 'NONE', ( #170, #273, #236, #201 ) ) ;
#175 = ORIENTED_EDGE ( 'NONE', *, *, #255, .F. ) ;
#176 = DIRECTION ( 'NONE',  ( 0.000000000000000000, 0.000000000000000000, 1.000000000000000000 ) ) ;
#177 = APPROVAL ( #357, 'UNSPECIFIED' ) ;
#178 = CC_DESIGN_APPROVAL ( #177, ( #83 ) ) ;
#179 = DIRECTION ( 'NONE',  ( 1.000000000000000000, 0.000000000000000000, 0.000000000000000000 ) ) ;
#180 = PRODUCT_DEFINITION_SHAPE ( 'NONE', 'NONE',  #99 ) ;
#181 = EDGE_CURVE ( 'NONE', #20, #58, #323, .T. ) ;
#182 = CARTESIAN_POINT ( 'NONE',  ( -10.00000000000000000, -6.000000000000000000, 8.000000000000000000 ) ) ;
#183 = CYLINDRICAL_SURFACE ( 'NONE', #248, 2.750000000000000000 ) ;
#184 = EDGE_CURVE ( 'NONE', #368, #56, #362, .T. ) ;
#185 = LOCAL_TIME ( 8, 58, 53.00000000000000000, #287 ) ;
#186 = ADVANCED_FACE ( 'NONE', ( #299 ), #183, .F. ) ;
#187 = PLANE ( 'NONE',  #116 ) ;
#188 = DIRECTION ( 'NONE',  ( 0.000000000000000000, 0.000000000000000000, -1.000000000000000000 ) ) ;
#189 = CARTESIAN_POINT ( 'NONE',  ( -10.00000000000000000, -6.000000000000000000, 0.000000000000000000 ) ) ;
#190 = VECTOR ( 'NONE', #106, 1000.000000000000000 ) ;
#191 = CARTESIAN_POINT ( 'NONE',  ( -10.00000000000000000, -6.000000000000000000, 8.000000000000000000 ) ) ;
#192 = CC_DESIGN_PERSON_AND_ORGANIZATION_ASSIGNMENT ( #285, #169, ( #83 ) ) ;
#193 = ORIENTED_EDGE ( 'NONE', *, *, #44, .T. ) ;
#194 = PERSON_AND_ORGANIZATION_ROLE ( 'design_owner' ) ;
#195 = CARTESIAN_POINT ( 'NONE',  ( 0.000000000000000000, 0.000000000000000000, 8.000000000000000000 ) ) ;
#196 = SHAPE_DEFINITION_REPRESENTATION ( #180, #337 ) ;
#197 = ORIENTED_EDGE ( 'NONE', *, *, #68, .T. ) ;
#198 = ORIENTED_EDGE ( 'NONE', *, *, #358, .F. ) ;
#199 = ORIENTED_EDGE ( 'NONE', *, *, #244, .F. ) ;
#200 = EDGE_CURVE ( 'NONE', #55, #123, #5, .T. ) ;
#201 = ORIENTED_EDGE ( 'NONE', *, *, #44, .F. ) ;
#202 = DIRECTION ( 'NONE',  ( -1.445602896647339903E-16, -1.000000000000000000, 0.000000000000000000 ) ) ;
#203 = DATE_AND_TIME ( #115, #278 ) ;
#204 = VECTOR ( 'NONE', #311, 1000.000000000000000 ) ;
#205 = DIRECTION ( 'NONE',  ( -1.445602896647339903E-16, -1.000000000000000000, 0.000000000000000000 ) ) ;
#206 = DATE_TIME_ROLE ( 'creation_date' ) ;
#207 = PERSON ( 'UNSPECIFIED', 'UNSPECIFIED', 'UNSPECIFIED', ('UNSPECIFIED'), ('UNSPECIFIED'), ('UNSPECIFIED') ) ;
#208 = CC_DESIGN_PERSON_AND_ORGANIZATION_ASSIGNMENT ( #73, #194, ( #95 ) ) ;
#209 = DIRECTION ( 'NONE',  ( 1.000000000000000000, 0.000000000000000000, 0.000000000000000000 ) ) ;
#210 = DIRECTION ( 'NONE',  ( 0.000000000000000000, 0.000000000000000000, 1.000000000000000000 ) ) ;
#211 = DIRECTION ( 'NONE',  ( 1.000000000000000000, 0.000000000000000000, 0.000000000000000000 ) ) ;
#212 = LINE ( 'NONE', #182, #225 ) ;
#213 = ORIENTED_EDGE ( 'NONE', *, *, #244, .T. ) ;
#214 = DESIGN_CONTEXT ( 'detailed design', #100, 'design' ) ;
#215 = CARTESIAN_POINT ( 'NONE',  ( -10.00000000000000000, 6.000000000000000000, 8.000000000000000000 ) ) ;
#216 = EDGE_CURVE ( 'NONE', #80, #78, #325, .T. ) ;
#217 = LOCAL_TIME ( 8, 58, 53.00000000000000000, #117 ) ;
#218 = CIRCLE ( 'NONE', #66, 2.750000000000000000 ) ;
#219 = EDGE_CURVE ( 'NONE', #56, #368, #218, .T. ) ;
#220 =( NAMED_UNIT ( * ) PLANE_ANGLE_UNIT ( ) SI_UNIT ( $, .RADIAN. ) );
#221 =( NAMED_UNIT ( * ) SI_UNIT ( $, .STERADIAN. ) SOLID_ANGLE_UNIT ( ) );
#222 = ORIENTED_EDGE ( 'NONE', *, *, #184, .F. ) ;
#223 = VECTOR ( 'NONE', #161, 1000.000000000000000 ) ;
#224 = CC_DESIGN_PERSON_AND_ORGANIZATION_ASSIGNMENT ( #18, #259, ( #99 ) ) ;
#225 = VECTOR ( 'NONE', #301, 1000.000000000000000 ) ;
#226 = FACE_OUTER_BOUND ( 'NONE', #16, .T. ) ;
#227 = DIRECTION ( 'NONE',  ( 1.000000000000000000, -1.445602896647339903E-16, 0.000000000000000000 ) ) ;
#228 = FACE_OUTER_BOUND ( 'NONE', #146, .T. ) ;
#229 = PLANE ( 'NONE',  #349 ) ;
#230 = VERTEX_POINT ( 'NONE', #389 ) ;
#231 = AXIS2_PLACEMENT_3D ( 'NONE', #24, #318, #31 ) ;
#232 = APPROVAL_STATUS ( 'not_yet_approved' ) ;
#233 = COORDINATED_UNIVERSAL_TIME_OFFSET ( 9, 0, .AHEAD. ) ;
#234 = SECURITY_CLASSIFICATION_LEVEL ( 'unclassified' ) ;
#235 = LINE ( 'NONE', #293, #190 ) ;
#236 = ORIENTED_EDGE ( 'NONE', *, *, #165, .T. ) ;
#237 = SECURITY_CLASSIFICATION ( '', '', #234 ) ;
#238 = ORIENTED_EDGE ( 'NONE', *, *, #68, .F. ) ;
#239 = CARTESIAN_POINT ( 'NONE',  ( 0.000000000000000000, 0.000000000000000000, 8.000000000000000000 ) ) ;
#240 = ORIENTED_EDGE ( 'NONE', *, *, #378, .T. ) ;
#241 = DIRECTION ( 'NONE',  ( 0.000000000000000000, 0.000000000000000000, 1.000000000000000000 ) ) ;
#242 = VECTOR ( 'NONE', #387, 1000.000000000000000 ) ;
#243 = CARTESIAN_POINT ( 'NONE',  ( -10.00000000000000000, 6.000000000000000000, 8.000000000000000000 ) ) ;
#244 = EDGE_CURVE ( 'NONE', #350, #310, #94, .T. ) ;
#245 = PLANE ( 'NONE',  #249 ) ;
#246 = CARTESIAN_POINT ( 'NONE',  ( -4.750000000000000000, 5.817072295949927426E-16, 2.600000000000000089 ) ) ;
#247 = DIRECTION ( 'NONE',  ( 0.000000000000000000, 0.000000000000000000, -1.000000000000000000 ) ) ;
#248 = AXIS2_PLACEMENT_3D ( 'NONE', #98, #210, #211 ) ;
#249 = AXIS2_PLACEMENT_3D ( 'NONE', #9, #188, #38 ) ;
#250 = CARTESIAN_POINT ( 'NONE',  ( -4.750000000000000000, 5.817072295949927426E-16, 8.000000000000000000 ) ) ;
#251 = FACE_OUTER_BOUND ( 'NONE', #174, .T. ) ;
#252 = CARTESIAN_POINT ( 'NONE',  ( -2.750000000000000000, 3.367778697655221012E-16, 8.000000000000000000 ) ) ;
#253 = VECTOR ( 'NONE', #1, 1000.000000000000000 ) ;
#254 = CARTESIAN_POINT ( 'NONE',  ( -10.00000000000000000, 6.000000000000000000, 0.000000000000000000 ) ) ;
#255 = EDGE_CURVE ( 'NONE', #78, #368, #54, .T. ) ;
#256 = ORIENTED_EDGE ( 'NONE', *, *, #219, .T. ) ;
#257 = AXIS2_PLACEMENT_3D ( 'NONE', #375, #140, #76 ) ;
#258 = LINE ( 'NONE', #88, #93 ) ;
#259 = PERSON_AND_ORGANIZATION_ROLE ( 'creator' ) ;
#260 = CARTESIAN_POINT ( 'NONE',  ( 10.00000000000000000, 6.000000000000000000, 8.000000000000000000 ) ) ;
#261 = ORIENTED_EDGE ( 'NONE', *, *, #72, .T. ) ;
#262 = EDGE_CURVE ( 'NONE', #120, #282, #63, .T. ) ;
#263 = EDGE_LOOP ( 'NONE', ( #145, #264, #317, #61 ) ) ;
#264 = ORIENTED_EDGE ( 'NONE', *, *, #378, .F. ) ;
#265 = ORIENTED_EDGE ( 'NONE', *, *, #29, .F. ) ;
#266 = DIRECTION ( 'NONE',  ( 1.000000000000000000, 0.000000000000000000, 0.000000000000000000 ) ) ;
#267 = LINE ( 'NONE', #6, #381 ) ;
#268 = AXIS2_PLACEMENT_3D ( 'NONE', #47, #81, #377 ) ;
#269 = PLANE ( 'NONE',  #156 ) ;
#270 = ADVANCED_FACE ( 'NONE', ( #276 ), #97, .F. ) ;
#271 = DIRECTION ( 'NONE',  ( 0.000000000000000000, 0.000000000000000000, 1.000000000000000000 ) ) ;
#272 = VECTOR ( 'NONE', #62, 1000.000000000000000 ) ;
#273 = ORIENTED_EDGE ( 'NONE', *, *, #262, .T. ) ;
#274 = APPROVAL_STATUS ( 'not_yet_approved' ) ;
#275 = EDGE_LOOP ( 'NONE', ( #162, #27 ) ) ;
#276 = FACE_OUTER_BOUND ( 'NONE', #159, .T. ) ;
#277 = COORDINATED_UNIVERSAL_TIME_OFFSET ( 9, 0, .AHEAD. ) ;
#278 = LOCAL_TIME ( 8, 58, 53.00000000000000000, #233 ) ;
#279 = DIRECTION ( 'NONE',  ( 0.000000000000000000, 1.000000000000000000, 0.000000000000000000 ) ) ;
#280 = EDGE_CURVE ( 'NONE', #80, #56, #153, .T. ) ;
#281 = ADVANCED_FACE ( 'NONE', ( #3 ), #353, .F. ) ;
#282 = VERTEX_POINT ( 'NONE', #254 ) ;
#283 = ORIENTED_EDGE ( 'NONE', *, *, #157, .F. ) ;
#284 = ORIENTED_EDGE ( 'NONE', *, *, #384, .T. ) ;
#285 = PERSON_AND_ORGANIZATION ( #207, #41 ) ;
#286 = VECTOR ( 'NONE', #247, 1000.000000000000000 ) ;
#287 = COORDINATED_UNIVERSAL_TIME_OFFSET ( 9, 0, .AHEAD. ) ;
#288 = APPROVAL ( #274, 'UNSPECIFIED' ) ;
#289 = CARTESIAN_POINT ( 'NONE',  ( 10.00000000000000000, -6.000000000000000000, 8.000000000000000000 ) ) ;
#290 = CARTESIAN_POINT ( 'NONE',  ( 10.00000000000000000, -6.000000000000000000, 0.000000000000000000 ) ) ;
#291 = ORIENTED_EDGE ( 'NONE', *, *, #262, .F. ) ;
#292 = DIRECTION ( 'NONE',  ( 0.000000000000000000, 0.000000000000000000, 1.000000000000000000 ) ) ;
#293 = CARTESIAN_POINT ( 'NONE',  ( 10.00000000000000000, 6.000000000000000000, 0.000000000000000000 ) ) ;
#294 = DIRECTION ( 'NONE',  ( 1.000000000000000000, 0.000000000000000000, 0.000000000000000000 ) ) ;
#295 = VERTEX_POINT ( 'NONE', #339 ) ;
#296 = APPROVAL ( #232, 'UNSPECIFIED' ) ;
#297 = AXIS2_PLACEMENT_3D ( 'NONE', #135, #343, #136 ) ;
#298 = VECTOR ( 'NONE', #132, 1000.000000000000000 ) ;
#299 = FACE_OUTER_BOUND ( 'NONE', #366, .T. ) ;
#300 = FACE_OUTER_BOUND ( 'NONE', #356, .T. ) ;
#301 = DIRECTION ( 'NONE',  ( 0.000000000000000000, 0.000000000000000000, -1.000000000000000000 ) ) ;
#302 = FACE_OUTER_BOUND ( 'NONE', #391, .T. ) ;
#303 = FACE_BOUND ( 'NONE', #275, .T. ) ;
#304 = APPLICATION_PROTOCOL_DEFINITION ( 'international standard', 'config_control_design', 1994, #100 ) ;
#305 = DIRECTION ( 'NONE',  ( 1.000000000000000000, 0.000000000000000000, 0.000000000000000000 ) ) ;
#306 = APPROVAL_PERSON_ORGANIZATION ( #172, #177, #316 ) ;
#307 = AXIS2_PLACEMENT_3D ( 'NONE', #289, #91, #205 ) ;
#308 = LINE ( 'NONE', #250, #204 ) ;
#309 = ADVANCED_FACE ( 'NONE', ( #226, #167 ), #376, .F. ) ;
#310 = VERTEX_POINT ( 'NONE', #312 ) ;
#311 = DIRECTION ( 'NONE',  ( 0.000000000000000000, 0.000000000000000000, 1.000000000000000000 ) ) ;
#312 = CARTESIAN_POINT ( 'NONE',  ( 10.00000000000000000, -6.000000000000000000, 8.000000000000000000 ) ) ;
#313 = DIRECTION ( 'NONE',  ( 0.000000000000000000, 0.000000000000000000, 1.000000000000000000 ) ) ;
#314 = AXIS2_PLACEMENT_3D ( 'NONE', #51, #364, #305 ) ;
#315 = ORIENTED_EDGE ( 'NONE', *, *, #200, .F. ) ;
#316 = APPROVAL_ROLE ( '' ) ;
#317 = ORIENTED_EDGE ( 'NONE', *, *, #35, .T. ) ;
#318 = DIRECTION ( 'NONE',  ( 0.000000000000000000, 0.000000000000000000, 1.000000000000000000 ) ) ;
#319 = ORIENTED_EDGE ( 'NONE', *, *, #367, .F. ) ;
#320 = ORIENTED_EDGE ( 'NONE', *, *, #219, .F. ) ;
#321 = CC_DESIGN_DATE_AND_TIME_ASSIGNMENT ( #203, #326, ( #237 ) ) ;
#322 = APPROVAL_DATE_TIME ( #382, #177 ) ;
#323 = LINE ( 'NONE', #290, #242 ) ;
#324 = PLANE ( 'NONE',  #334 ) ;
#325 = CIRCLE ( 'NONE', #314, 2.750000000000000000 ) ;
#326 = DATE_TIME_ROLE ( 'classification_date' ) ;
#327 = CIRCLE ( 'NONE', #361, 4.750000000000000000 ) ;
#328 = CARTESIAN_POINT ( 'NONE',  ( -2.750000000000000000, 3.367778697655221012E-16, -6.938893903907229955E-15 ) ) ;
#329 = COORDINATED_UNIVERSAL_TIME_OFFSET ( 9, 0, .AHEAD. ) ;
#330 = ORIENTED_EDGE ( 'NONE', *, *, #255, .T. ) ;
#331 = CARTESIAN_POINT ( 'NONE',  ( 0.000000000000000000, 0.000000000000000000, 2.600000000000000089 ) ) ;
#332 = EDGE_CURVE ( 'NONE', #123, #55, #341, .T. ) ;
#333 =( GEOMETRIC_REPRESENTATION_CONTEXT ( 3 ) GLOBAL_UNCERTAINTY_ASSIGNED_CONTEXT ( ( #105 ) ) GLOBAL_UNIT_ASSIGNED_CONTEXT ( ( #109, #220, #221 ) ) REPRESENTATION_CONTEXT ( 'NONE', 'WORKASPACE' ) );
#334 = AXIS2_PLACEMENT_3D ( 'NONE', #260, #25, #2 ) ;
#335 = CIRCLE ( 'NONE', #166, 4.750000000000000000 ) ;
#336 = DIRECTION ( 'NONE',  ( 0.000000000000000000, 0.000000000000000000, -1.000000000000000000 ) ) ;
#337 = ADVANCED_BREP_SHAPE_REPRESENTATION ( 'bj712-12020', ( #151, #268 ), #333 ) ;
#338 = EDGE_LOOP ( 'NONE', ( #291, #84, #261, #119 ) ) ;
#339 = CARTESIAN_POINT ( 'NONE',  ( -4.750000000000000000, 5.817072295949927426E-16, 8.000000000000000000 ) ) ;
#340 = DIRECTION ( 'NONE',  ( 1.000000000000000000, 0.000000000000000000, 0.000000000000000000 ) ) ;
#341 = CIRCLE ( 'NONE', #257, 4.750000000000000000 ) ;
#342 = AXIS2_PLACEMENT_3D ( 'NONE', #195, #313, #168 ) ;
#343 = DIRECTION ( 'NONE',  ( 0.000000000000000000, 0.000000000000000000, -1.000000000000000000 ) ) ;
#344 = CARTESIAN_POINT ( 'NONE',  ( 4.750000000000000000, 0.000000000000000000, 8.000000000000000000 ) ) ;
#345 = CYLINDRICAL_SURFACE ( 'NONE', #342, 2.750000000000000000 ) ;
#346 = APPROVAL_ROLE ( '' ) ;
#347 = FACE_OUTER_BOUND ( 'NONE', #263, .T. ) ;
#348 = ORIENTED_EDGE ( 'NONE', *, *, #280, .F. ) ;
#349 = AXIS2_PLACEMENT_3D ( 'NONE', #53, #279, #352 ) ;
#350 = VERTEX_POINT ( 'NONE', #191 ) ;
#351 = PERSON_AND_ORGANIZATION ( #207, #41 ) ;
#352 = DIRECTION ( 'NONE',  ( 0.000000000000000000, 0.000000000000000000, 1.000000000000000000 ) ) ;
#353 = CYLINDRICAL_SURFACE ( 'NONE', #15, 4.750000000000000000 ) ;
#354 = CALENDAR_DATE ( 2021, 25, 10 ) ;
#355 = CARTESIAN_POINT ( 'NONE',  ( -10.00000000000000000, -6.000000000000000000, 8.000000000000000000 ) ) ;
#356 = EDGE_LOOP ( 'NONE', ( #137, #92, #265, #127 ) ) ;
#357 = APPROVAL_STATUS ( 'not_yet_approved' ) ;
#358 = EDGE_CURVE ( 'NONE', #123, #295, #308, .T. ) ;
#359 = PLANE ( 'NONE',  #307 ) ;
#360 = ORIENTED_EDGE ( 'NONE', *, *, #216, .F. ) ;
#361 = AXIS2_PLACEMENT_3D ( 'NONE', #239, #37, #154 ) ;
#362 = CIRCLE ( 'NONE', #75, 2.750000000000000000 ) ;
#363 = CARTESIAN_POINT ( 'NONE',  ( -10.00000000000000000, 6.000000000000000000, 8.000000000000000000 ) ) ;
#364 = DIRECTION ( 'NONE',  ( 0.000000000000000000, 0.000000000000000000, 1.000000000000000000 ) ) ;
#365 = CARTESIAN_POINT ( 'NONE',  ( 10.00000000000000000, 6.000000000000000000, 8.000000000000000000 ) ) ;
#366 = EDGE_LOOP ( 'NONE', ( #283, #330, #32, #348 ) ) ;
#367 = EDGE_CURVE ( 'NONE', #295, #380, #335, .T. ) ;
#368 = VERTEX_POINT ( 'NONE', #11 ) ;
#369 = ADVANCED_FACE ( 'NONE', ( #251 ), #187, .F. ) ;
#370 = CARTESIAN_POINT ( 'NONE',  ( 4.750000000000000000, 0.000000000000000000, 2.600000000000000089 ) ) ;
#371 = FACE_BOUND ( 'NONE', #383, .T. ) ;
#372 = LINE ( 'NONE', #134, #101 ) ;
#373 = FACE_OUTER_BOUND ( 'NONE', #33, .T. ) ;
#374 = CARTESIAN_POINT ( 'NONE',  ( 10.00000000000000000, 6.000000000000000000, 8.000000000000000000 ) ) ;
#375 = CARTESIAN_POINT ( 'NONE',  ( 0.000000000000000000, 0.000000000000000000, 2.600000000000000089 ) ) ;
#376 = PLANE ( 'NONE',  #297 ) ;
#377 = DIRECTION ( 'NONE',  ( 1.000000000000000000, 0.000000000000000000, 0.000000000000000000 ) ) ;
#378 = EDGE_CURVE ( 'NONE', #310, #230, #112, .T. ) ;
#379 = LINE ( 'NONE', #374, #131 ) ;
#380 = VERTEX_POINT ( 'NONE', #344 ) ;
#381 = VECTOR ( 'NONE', #103, 1000.000000000000000 ) ;
#382 = DATE_AND_TIME ( #90, #59 ) ;
#383 = EDGE_LOOP ( 'NONE', ( #320, #222 ) ) ;
#384 = EDGE_CURVE ( 'NONE', #22, #20, #4, .T. ) ;
#385 = APPLICATION_CONTEXT ( 'configuration controlled 3d designs of mechanical parts and assemblies' ) ;
#386 = ORIENTED_EDGE ( 'NONE', *, *, #45, .T. ) ;
#387 = DIRECTION ( 'NONE',  ( 1.445602896647339903E-16, 1.000000000000000000, 0.000000000000000000 ) ) ;
#388 = APPROVAL_PERSON_ORGANIZATION ( #46, #288, #10 ) ;
#389 = CARTESIAN_POINT ( 'NONE',  ( 10.00000000000000000, 6.000000000000000000, 8.000000000000000000 ) ) ;
#390 = DIRECTION ( 'NONE',  ( 0.000000000000000000, 0.000000000000000000, 1.000000000000000000 ) ) ;
#391 = EDGE_LOOP ( 'NONE', ( #144, #199, #193, #284 ) ) ;
ENDSEC;
END-ISO-10303-21;
