ISO-10303-21;
HEADER;
FILE_DESCRIPTION (( 'STEP AP203' ),
    '1' );
FILE_NAME ('bj300-16032.STEP',
    '2021-10-24T23:51:33',
    ( '' ),
    ( '' ),
    'SwSTEP 2.0',
    'SolidWorks 2020',
    '' );
FILE_SCHEMA (( 'CONFIG_CONTROL_DESIGN' ));
ENDSEC;

DATA;
#1 = DATE_AND_TIME ( #76, #127 ) ;
#2 = EDGE_CURVE ( 'NONE', #255, #139, #118, .T. ) ;
#3 = LINE ( 'NONE', #109, #171 ) ;
#4 = ORGANIZATION ( 'UNSPECIFIED', 'UNSPECIFIED', '' ) ;
#5 = ORIENTED_EDGE ( 'NONE', *, *, #287, .F. ) ;
#6 = ORIENTED_EDGE ( 'NONE', *, *, #138, .T. ) ;
#7 = LINE ( 'NONE', #89, #269 ) ;
#8 = ADVANCED_FACE ( 'NONE', ( #141 ), #91, .F. ) ;
#9 = VERTEX_POINT ( 'NONE', #237 ) ;
#10 = AXIS2_PLACEMENT_3D ( 'NONE', #68, #12, #321 ) ;
#11 = DIRECTION ( 'NONE',  ( 0.000000000000000000, 0.000000000000000000, 1.000000000000000000 ) ) ;
#12 = DIRECTION ( 'NONE',  ( 0.000000000000000000, 0.000000000000000000, 1.000000000000000000 ) ) ;
#13 = ORIENTED_EDGE ( 'NONE', *, *, #266, .F. ) ;
#14 = EDGE_CURVE ( 'NONE', #39, #289, #281, .T. ) ;
#15 = DIRECTION ( 'NONE',  ( 1.000000000000000000, 0.000000000000000000, 0.000000000000000000 ) ) ;
#16 = CARTESIAN_POINT ( 'NONE',  ( 13.00000000000000000, 0.000000000000000000, 32.00000000000000000 ) ) ;
#17 = CARTESIAN_POINT ( 'NONE',  ( 0.000000000000000000, 0.000000000000000000, 0.000000000000000000 ) ) ;
#18 = APPROVAL_DATE_TIME ( #296, #274 ) ;
#19 = CARTESIAN_POINT ( 'NONE',  ( 0.000000000000000000, 0.000000000000000000, 40.00000000000000000 ) ) ;
#20 = AXIS2_PLACEMENT_3D ( 'NONE', #193, #125, #119 ) ;
#21 = DIRECTION ( 'NONE',  ( 0.000000000000000000, 0.000000000000000000, 1.000000000000000000 ) ) ;
#22 = CARTESIAN_POINT ( 'NONE',  ( 0.000000000000000000, 0.000000000000000000, 0.000000000000000000 ) ) ;
#23 = CARTESIAN_POINT ( 'NONE',  ( 0.000000000000000000, 0.000000000000000000, 40.00000000000000000 ) ) ;
#24 = CIRCLE ( 'NONE', #20, 13.00000000000000000 ) ;
#25 = ADVANCED_FACE ( 'NONE', ( #102, #54 ), #180, .F. ) ;
#26 = PLANE ( 'NONE',  #86 ) ;
#27 = EDGE_CURVE ( 'NONE', #314, #44, #99, .T. ) ;
#28 = APPROVAL_STATUS ( 'not_yet_approved' ) ;
#29 = AXIS2_PLACEMENT_3D ( 'NONE', #137, #21, #47 ) ;
#30 = FACE_BOUND ( 'NONE', #87, .T. ) ;
#31 = EDGE_CURVE ( 'NONE', #44, #314, #275, .T. ) ;
#32 = PRODUCT_DEFINITION_SHAPE ( 'NONE', 'NONE',  #55 ) ;
#33 = ORIENTED_EDGE ( 'NONE', *, *, #138, .F. ) ;
#34 = ADVANCED_BREP_SHAPE_REPRESENTATION ( 'bj300-16032', ( #150, #59 ), #197 ) ;
#35 = ORIENTED_EDGE ( 'NONE', *, *, #219, .F. ) ;
#36 = CARTESIAN_POINT ( 'NONE',  ( 0.000000000000000000, 0.000000000000000000, 0.000000000000000000 ) ) ;
#37 = CIRCLE ( 'NONE', #202, 25.00000000000000000 ) ;
#38 = APPROVAL_PERSON_ORGANIZATION ( #57, #161, #247 ) ;
#39 = VERTEX_POINT ( 'NONE', #298 ) ;
#40 = CC_DESIGN_PERSON_AND_ORGANIZATION_ASSIGNMENT ( #80, #305, ( #55 ) ) ;
#41 = DIRECTION ( 'NONE',  ( 1.000000000000000000, 0.000000000000000000, 0.000000000000000000 ) ) ;
#42 = EDGE_LOOP ( 'NONE', ( #120, #182, #153, #166 ) ) ;
#43 = FACE_OUTER_BOUND ( 'NONE', #280, .T. ) ;
#44 = VERTEX_POINT ( 'NONE', #271 ) ;
#45 = AXIS2_PLACEMENT_3D ( 'NONE', #214, #66, #318 ) ;
#46 = CARTESIAN_POINT ( 'NONE',  ( -13.00000000000000000, 1.592040838891559095E-15, 40.00000000000000000 ) ) ;
#47 = DIRECTION ( 'NONE',  ( 1.000000000000000000, 0.000000000000000000, 0.000000000000000000 ) ) ;
#48 = DIRECTION ( 'NONE',  ( 0.000000000000000000, 0.000000000000000000, 1.000000000000000000 ) ) ;
#49 = DIRECTION ( 'NONE',  ( 0.000000000000000000, 0.000000000000000000, 1.000000000000000000 ) ) ;
#50 = ADVANCED_FACE ( 'NONE', ( #53, #98 ), #26, .F. ) ;
#51 = AXIS2_PLACEMENT_3D ( 'NONE', #294, #220, #72 ) ;
#52 = DIRECTION ( 'NONE',  ( 0.000000000000000000, 0.000000000000000000, 1.000000000000000000 ) ) ;
#53 = FACE_BOUND ( 'NONE', #265, .T. ) ;
#54 = FACE_OUTER_BOUND ( 'NONE', #312, .T. ) ;
#55 = PRODUCT_DEFINITION ( 'UNKNOWN', '', #276, #172 ) ;
#56 = DIRECTION ( 'NONE',  ( 0.000000000000000000, 0.000000000000000000, -1.000000000000000000 ) ) ;
#57 = PERSON_AND_ORGANIZATION ( #306, #4 ) ;
#58 = AXIS2_PLACEMENT_3D ( 'NONE', #96, #56, #78 ) ;
#59 = AXIS2_PLACEMENT_3D ( 'NONE', #303, #129, #325 ) ;
#60 = CARTESIAN_POINT ( 'NONE',  ( 13.00000000000000000, 0.000000000000000000, 15.00000000000000000 ) ) ;
#61 = ORIENTED_EDGE ( 'NONE', *, *, #157, .F. ) ;
#62 = ADVANCED_FACE ( 'NONE', ( #224 ), #246, .F. ) ;
#63 = DIRECTION ( 'NONE',  ( 0.000000000000000000, 0.000000000000000000, 1.000000000000000000 ) ) ;
#64 = ORIENTED_EDGE ( 'NONE', *, *, #219, .T. ) ;
#65 = EDGE_CURVE ( 'NONE', #9, #67, #37, .T. ) ;
#66 = DIRECTION ( 'NONE',  ( 0.000000000000000000, 0.000000000000000000, 1.000000000000000000 ) ) ;
#67 = VERTEX_POINT ( 'NONE', #111 ) ;
#68 = CARTESIAN_POINT ( 'NONE',  ( 0.000000000000000000, 0.000000000000000000, 15.00000000000000000 ) ) ;
#69 = APPLICATION_CONTEXT ( 'configuration controlled 3d designs of mechanical parts and assemblies' ) ;
#70 = SECURITY_CLASSIFICATION_LEVEL ( 'unclassified' ) ;
#71 = CC_DESIGN_DATE_AND_TIME_ASSIGNMENT ( #179, #149, ( #55 ) ) ;
#72 = DIRECTION ( 'NONE',  ( 1.000000000000000000, 0.000000000000000000, 0.000000000000000000 ) ) ;
#73 = ORIENTED_EDGE ( 'NONE', *, *, #221, .F. ) ;
#74 = FACE_OUTER_BOUND ( 'NONE', #206, .T. ) ;
#75 = UNCERTAINTY_MEASURE_WITH_UNIT (LENGTH_MEASURE( 1.000000000000000082E-05 ), #140, 'distance_accuracy_value', 'NONE');
#76 = CALENDAR_DATE ( 2021, 25, 10 ) ;
#77 = CC_DESIGN_SECURITY_CLASSIFICATION ( #209, ( #276 ) ) ;
#78 = DIRECTION ( 'NONE',  ( -1.000000000000000000, 0.000000000000000000, 0.000000000000000000 ) ) ;
#79 = CALENDAR_DATE ( 2021, 25, 10 ) ;
#80 = PERSON_AND_ORGANIZATION ( #306, #4 ) ;
#81 = PRODUCT ( 'bj300-16032', 'bj300-16032', '', ( #148 ) ) ;
#82 = CALENDAR_DATE ( 2021, 25, 10 ) ;
#83 = DIRECTION ( 'NONE',  ( 1.000000000000000000, 0.000000000000000000, 0.000000000000000000 ) ) ;
#84 = ORIENTED_EDGE ( 'NONE', *, *, #309, .F. ) ;
#85 = PERSON_AND_ORGANIZATION ( #306, #4 ) ;
#86 = AXIS2_PLACEMENT_3D ( 'NONE', #244, #170, #270 ) ;
#87 = EDGE_LOOP ( 'NONE', ( #283, #293 ) ) ;
#88 = VERTEX_POINT ( 'NONE', #16 ) ;
#89 = CARTESIAN_POINT ( 'NONE',  ( -9.000000000000000000, 1.102182119232617714E-15, 40.00000000000000000 ) ) ;
#90 = LINE ( 'NONE', #142, #145 ) ;
#91 = CYLINDRICAL_SURFACE ( 'NONE', #248, 9.000000000000000000 ) ;
#92 = DATE_AND_TIME ( #290, #302 ) ;
#93 = CARTESIAN_POINT ( 'NONE',  ( 0.000000000000000000, 0.000000000000000000, 32.00000000000000000 ) ) ;
#94 = DIRECTION ( 'NONE',  ( 1.000000000000000000, 0.000000000000000000, 0.000000000000000000 ) ) ;
#95 = APPROVAL ( #28, 'UNSPECIFIED' ) ;
#96 = CARTESIAN_POINT ( 'NONE',  ( 25.00000000000000000, 0.000000000000000000, 32.00000000000000000 ) ) ;
#97 = CYLINDRICAL_SURFACE ( 'NONE', #198, 13.00000000000000000 ) ;
#98 = FACE_OUTER_BOUND ( 'NONE', #108, .T. ) ;
#99 = CIRCLE ( 'NONE', #243, 25.00000000000000000 ) ;
#100 = LOCAL_TIME ( 8, 51, 33.00000000000000000, #176 ) ;
#101 = COORDINATED_UNIVERSAL_TIME_OFFSET ( 9, 0, .AHEAD. ) ;
#102 = FACE_BOUND ( 'NONE', #231, .T. ) ;
#103 = PERSON_AND_ORGANIZATION ( #306, #4 ) ;
#104 = CIRCLE ( 'NONE', #110, 9.000000000000000000 ) ;
#105 = EDGE_CURVE ( 'NONE', #139, #88, #136, .T. ) ;
#106 = VERTEX_POINT ( 'NONE', #253 ) ;
#107 = APPROVAL_DATE_TIME ( #1, #95 ) ;
#108 = EDGE_LOOP ( 'NONE', ( #235, #186 ) ) ;
#109 = CARTESIAN_POINT ( 'NONE',  ( -25.00000000000000000, 3.061616997868383043E-15, 40.00000000000000000 ) ) ;
#110 = AXIS2_PLACEMENT_3D ( 'NONE', #36, #194, #285 ) ;
#111 = CARTESIAN_POINT ( 'NONE',  ( -25.00000000000000000, 3.061616997868383043E-15, 0.000000000000000000 ) ) ;
#112 = EDGE_LOOP ( 'NONE', ( #33, #123, #260, #64 ) ) ;
#113 = FACE_OUTER_BOUND ( 'NONE', #191, .T. ) ;
#114 = COORDINATED_UNIVERSAL_TIME_OFFSET ( 9, 0, .AHEAD. ) ;
#115 = DIRECTION ( 'NONE',  ( 1.000000000000000000, 0.000000000000000000, 0.000000000000000000 ) ) ;
#116 = AXIS2_PLACEMENT_3D ( 'NONE', #177, #63, #115 ) ;
#117 = CARTESIAN_POINT ( 'NONE',  ( 0.000000000000000000, 0.000000000000000000, 40.00000000000000000 ) ) ;
#118 = LINE ( 'NONE', #46, #268 ) ;
#119 = DIRECTION ( 'NONE',  ( 1.000000000000000000, 0.000000000000000000, 0.000000000000000000 ) ) ;
#120 = ORIENTED_EDGE ( 'NONE', *, *, #178, .F. ) ;
#121 = PERSON_AND_ORGANIZATION_ROLE ( 'classification_officer' ) ;
#122 = DIRECTION ( 'NONE',  ( 0.000000000000000000, 0.000000000000000000, 1.000000000000000000 ) ) ;
#123 = ORIENTED_EDGE ( 'NONE', *, *, #14, .F. ) ;
#124 = DIRECTION ( 'NONE',  ( 1.000000000000000000, 0.000000000000000000, 0.000000000000000000 ) ) ;
#125 = DIRECTION ( 'NONE',  ( 0.000000000000000000, 0.000000000000000000, 1.000000000000000000 ) ) ;
#126 = CARTESIAN_POINT ( 'NONE',  ( 0.000000000000000000, 0.000000000000000000, 32.00000000000000000 ) ) ;
#127 = LOCAL_TIME ( 8, 51, 33.00000000000000000, #299 ) ;
#128 = APPLICATION_PROTOCOL_DEFINITION ( 'international standard', 'config_control_design', 1994, #69 ) ;
#129 = DIRECTION ( 'NONE',  ( 0.000000000000000000, 0.000000000000000000, 1.000000000000000000 ) ) ;
#130 = DIRECTION ( 'NONE',  ( 0.000000000000000000, 0.000000000000000000, 1.000000000000000000 ) ) ;
#131 = PERSON_AND_ORGANIZATION_ROLE ( 'design_owner' ) ;
#132 = ORIENTED_EDGE ( 'NONE', *, *, #313, .F. ) ;
#133 = CARTESIAN_POINT ( 'NONE',  ( -13.00000000000000000, 1.592040838891559095E-15, 32.00000000000000000 ) ) ;
#134 = ADVANCED_FACE ( 'NONE', ( #113, #30 ), #279, .F. ) ;
#135 = ORIENTED_EDGE ( 'NONE', *, *, #27, .T. ) ;
#136 = CIRCLE ( 'NONE', #116, 13.00000000000000000 ) ;
#137 = CARTESIAN_POINT ( 'NONE',  ( 0.000000000000000000, 0.000000000000000000, 15.00000000000000000 ) ) ;
#138 = EDGE_CURVE ( 'NONE', #289, #106, #7, .T. ) ;
#139 = VERTEX_POINT ( 'NONE', #133 ) ;
#140 =( LENGTH_UNIT ( ) NAMED_UNIT ( * ) SI_UNIT ( .MILLI., .METRE. ) );
#141 = FACE_OUTER_BOUND ( 'NONE', #112, .T. ) ;
#142 = CARTESIAN_POINT ( 'NONE',  ( 9.000000000000000000, 0.000000000000000000, 40.00000000000000000 ) ) ;
#143 = DIRECTION ( 'NONE',  ( 1.000000000000000000, 0.000000000000000000, 0.000000000000000000 ) ) ;
#144 = CARTESIAN_POINT ( 'NONE',  ( 25.00000000000000000, 0.000000000000000000, 32.00000000000000000 ) ) ;
#145 = VECTOR ( 'NONE', #122, 1000.000000000000000 ) ;
#146 = CARTESIAN_POINT ( 'NONE',  ( 0.000000000000000000, 0.000000000000000000, 40.00000000000000000 ) ) ;
#147 = APPLICATION_CONTEXT ( 'configuration controlled 3d designs of mechanical parts and assemblies' ) ;
#148 = MECHANICAL_CONTEXT ( 'NONE', #69, 'mechanical' ) ;
#149 = DATE_TIME_ROLE ( 'creation_date' ) ;
#150 = MANIFOLD_SOLID_BREP ( 'Imported1', #207 ) ;
#151 = AXIS2_PLACEMENT_3D ( 'NONE', #146, #241, #15 ) ;
#152 = DIRECTION ( 'NONE',  ( 0.000000000000000000, 0.000000000000000000, 1.000000000000000000 ) ) ;
#153 = ORIENTED_EDGE ( 'NONE', *, *, #157, .T. ) ;
#154 = CC_DESIGN_PERSON_AND_ORGANIZATION_ASSIGNMENT ( #103, #131, ( #81 ) ) ;
#155 = DIRECTION ( 'NONE',  ( 0.000000000000000000, 0.000000000000000000, 1.000000000000000000 ) ) ;
#156 = ORIENTED_EDGE ( 'NONE', *, *, #27, .F. ) ;
#157 = EDGE_CURVE ( 'NONE', #9, #314, #226, .T. ) ;
#158 = DIRECTION ( 'NONE',  ( 0.000000000000000000, 0.000000000000000000, 1.000000000000000000 ) ) ;
#159 = ORIENTED_EDGE ( 'NONE', *, *, #105, .T. ) ;
#160 = DATE_TIME_ROLE ( 'classification_date' ) ;
#161 = APPROVAL ( #200, 'UNSPECIFIED' ) ;
#162 = DIRECTION ( 'NONE',  ( 1.000000000000000000, 0.000000000000000000, 0.000000000000000000 ) ) ;
#163 = APPROVAL_STATUS ( 'not_yet_approved' ) ;
#164 = VERTEX_POINT ( 'NONE', #60 ) ;
#165 = COORDINATED_UNIVERSAL_TIME_OFFSET ( 9, 0, .AHEAD. ) ;
#166 = ORIENTED_EDGE ( 'NONE', *, *, #31, .F. ) ;
#167 = PERSON_AND_ORGANIZATION ( #306, #4 ) ;
#168 = DIRECTION ( 'NONE',  ( 0.000000000000000000, 0.000000000000000000, 1.000000000000000000 ) ) ;
#169 = ORIENTED_EDGE ( 'NONE', *, *, #178, .T. ) ;
#170 = DIRECTION ( 'NONE',  ( 0.000000000000000000, 0.000000000000000000, -1.000000000000000000 ) ) ;
#171 = VECTOR ( 'NONE', #155, 1000.000000000000000 ) ;
#172 = DESIGN_CONTEXT ( 'detailed design', #147, 'design' ) ;
#173 = DIRECTION ( 'NONE',  ( 1.000000000000000000, 0.000000000000000000, 0.000000000000000000 ) ) ;
#174 = DATE_AND_TIME ( #79, #217 ) ;
#175 = CC_DESIGN_PERSON_AND_ORGANIZATION_ASSIGNMENT ( #229, #204, ( #276 ) ) ;
#176 = COORDINATED_UNIVERSAL_TIME_OFFSET ( 9, 0, .AHEAD. ) ;
#177 = CARTESIAN_POINT ( 'NONE',  ( 0.000000000000000000, 0.000000000000000000, 32.00000000000000000 ) ) ;
#178 = EDGE_CURVE ( 'NONE', #67, #44, #3, .T. ) ;
#179 = DATE_AND_TIME ( #82, #100 ) ;
#180 = PLANE ( 'NONE',  #58 ) ;
#181 = CC_DESIGN_DATE_AND_TIME_ASSIGNMENT ( #92, #160, ( #209 ) ) ;
#182 = ORIENTED_EDGE ( 'NONE', *, *, #295, .T. ) ;
#183 = ORIENTED_EDGE ( 'NONE', *, *, #313, .T. ) ;
#184 = AXIS2_PLACEMENT_3D ( 'NONE', #93, #316, #162 ) ;
#185 = LOCAL_TIME ( 8, 51, 33.00000000000000000, #165 ) ;
#186 = ORIENTED_EDGE ( 'NONE', *, *, #221, .T. ) ;
#187 = CC_DESIGN_PERSON_AND_ORGANIZATION_ASSIGNMENT ( #236, #121, ( #209 ) ) ;
#188 = CALENDAR_DATE ( 2021, 25, 10 ) ;
#189 = DIRECTION ( 'NONE',  ( 1.000000000000000000, 0.000000000000000000, 0.000000000000000000 ) ) ;
#190 = EDGE_CURVE ( 'NONE', #289, #39, #104, .T. ) ;
#191 = EDGE_LOOP ( 'NONE', ( #317, #251 ) ) ;
#192 = CARTESIAN_POINT ( 'NONE',  ( 0.000000000000000000, 0.000000000000000000, 40.00000000000000000 ) ) ;
#193 = CARTESIAN_POINT ( 'NONE',  ( 0.000000000000000000, 0.000000000000000000, 15.00000000000000000 ) ) ;
#194 = DIRECTION ( 'NONE',  ( 0.000000000000000000, 0.000000000000000000, 1.000000000000000000 ) ) ;
#195 = DIRECTION ( 'NONE',  ( 1.000000000000000000, 0.000000000000000000, 0.000000000000000000 ) ) ;
#196 =( NAMED_UNIT ( * ) PLANE_ANGLE_UNIT ( ) SI_UNIT ( $, .RADIAN. ) );
#197 =( GEOMETRIC_REPRESENTATION_CONTEXT ( 3 ) GLOBAL_UNCERTAINTY_ASSIGNED_CONTEXT ( ( #75 ) ) GLOBAL_UNIT_ASSIGNED_CONTEXT ( ( #140, #196, #308 ) ) REPRESENTATION_CONTEXT ( 'NONE', 'WORKASPACE' ) );
#198 = AXIS2_PLACEMENT_3D ( 'NONE', #19, #291, #124 ) ;
#199 = ADVANCED_FACE ( 'NONE', ( #267 ), #262, .T. ) ;
#200 = APPROVAL_STATUS ( 'not_yet_approved' ) ;
#201 = DIRECTION ( 'NONE',  ( 0.000000000000000000, 0.000000000000000000, 1.000000000000000000 ) ) ;
#202 = AXIS2_PLACEMENT_3D ( 'NONE', #22, #201, #83 ) ;
#203 = PERSON_AND_ORGANIZATION ( #306, #4 ) ;
#204 = PERSON_AND_ORGANIZATION_ROLE ( 'creator' ) ;
#205 = CARTESIAN_POINT ( 'NONE',  ( 25.00000000000000000, 0.000000000000000000, 40.00000000000000000 ) ) ;
#206 = EDGE_LOOP ( 'NONE', ( #319, #169, #156, #61 ) ) ;
#207 = CLOSED_SHELL ( 'NONE', ( #62, #208, #328, #50, #8, #134, #199, #25, #315 ) ) ;
#208 = ADVANCED_FACE ( 'NONE', ( #74 ), #288, .T. ) ;
#209 = SECURITY_CLASSIFICATION ( '', '', #70 ) ;
#210 = CARTESIAN_POINT ( 'NONE',  ( 9.000000000000000000, 0.000000000000000000, 0.000000000000000000 ) ) ;
#211 = CIRCLE ( 'NONE', #184, 13.00000000000000000 ) ;
#212 = CC_DESIGN_APPROVAL ( #274, ( #209 ) ) ;
#213 = VERTEX_POINT ( 'NONE', #297 ) ;
#214 = CARTESIAN_POINT ( 'NONE',  ( 0.000000000000000000, 0.000000000000000000, 40.00000000000000000 ) ) ;
#215 = CARTESIAN_POINT ( 'NONE',  ( 13.00000000000000000, 0.000000000000000000, 40.00000000000000000 ) ) ;
#216 = DIRECTION ( 'NONE',  ( 0.000000000000000000, 0.000000000000000000, 1.000000000000000000 ) ) ;
#217 = LOCAL_TIME ( 8, 51, 33.00000000000000000, #101 ) ;
#218 = CARTESIAN_POINT ( 'NONE',  ( -13.00000000000000000, 1.592040838891559095E-15, 15.00000000000000000 ) ) ;
#219 = EDGE_CURVE ( 'NONE', #213, #106, #301, .T. ) ;
#220 = DIRECTION ( 'NONE',  ( 0.000000000000000000, 0.000000000000000000, 1.000000000000000000 ) ) ;
#221 = EDGE_CURVE ( 'NONE', #255, #164, #24, .T. ) ;
#222 = DIRECTION ( 'NONE',  ( 0.000000000000000000, 0.000000000000000000, 1.000000000000000000 ) ) ;
#223 = AXIS2_PLACEMENT_3D ( 'NONE', #304, #52, #195 ) ;
#224 = FACE_OUTER_BOUND ( 'NONE', #263, .T. ) ;
#225 = APPLICATION_PROTOCOL_DEFINITION ( 'international standard', 'config_control_design', 1994, #147 ) ;
#226 = LINE ( 'NONE', #205, #245 ) ;
#227 = PRODUCT_RELATED_PRODUCT_CATEGORY ( 'detail', '', ( #81 ) ) ;
#228 = ORIENTED_EDGE ( 'NONE', *, *, #2, .F. ) ;
#229 = PERSON_AND_ORGANIZATION ( #306, #4 ) ;
#230 = CIRCLE ( 'NONE', #10, 13.00000000000000000 ) ;
#231 = EDGE_LOOP ( 'NONE', ( #5, #249 ) ) ;
#232 = ORIENTED_EDGE ( 'NONE', *, *, #31, .T. ) ;
#233 = CYLINDRICAL_SURFACE ( 'NONE', #324, 9.000000000000000000 ) ;
#234 = CC_DESIGN_APPROVAL ( #161, ( #55 ) ) ;
#235 = ORIENTED_EDGE ( 'NONE', *, *, #284, .T. ) ;
#236 = PERSON_AND_ORGANIZATION ( #306, #4 ) ;
#237 = CARTESIAN_POINT ( 'NONE',  ( 25.00000000000000000, 0.000000000000000000, 0.000000000000000000 ) ) ;
#238 = APPROVAL_ROLE ( '' ) ;
#239 = FACE_OUTER_BOUND ( 'NONE', #277, .T. ) ;
#240 = APPROVAL_PERSON_ORGANIZATION ( #167, #274, #238 ) ;
#241 = DIRECTION ( 'NONE',  ( 0.000000000000000000, 0.000000000000000000, 1.000000000000000000 ) ) ;
#242 = CC_DESIGN_PERSON_AND_ORGANIZATION_ASSIGNMENT ( #85, #258, ( #276 ) ) ;
#243 = AXIS2_PLACEMENT_3D ( 'NONE', #126, #222, #173 ) ;
#244 = CARTESIAN_POINT ( 'NONE',  ( 13.00000000000000000, 0.000000000000000000, 15.00000000000000000 ) ) ;
#245 = VECTOR ( 'NONE', #278, 1000.000000000000000 ) ;
#246 = CYLINDRICAL_SURFACE ( 'NONE', #252, 13.00000000000000000 ) ;
#247 = APPROVAL_ROLE ( '' ) ;
#248 = AXIS2_PLACEMENT_3D ( 'NONE', #192, #48, #143 ) ;
#249 = ORIENTED_EDGE ( 'NONE', *, *, #105, .F. ) ;
#250 = VECTOR ( 'NONE', #49, 1000.000000000000000 ) ;
#251 = ORIENTED_EDGE ( 'NONE', *, *, #295, .F. ) ;
#252 = AXIS2_PLACEMENT_3D ( 'NONE', #23, #130, #326 ) ;
#253 = CARTESIAN_POINT ( 'NONE',  ( -9.000000000000000000, 1.102182119232617714E-15, 15.00000000000000000 ) ) ;
#254 = ORIENTED_EDGE ( 'NONE', *, *, #287, .T. ) ;
#255 = VERTEX_POINT ( 'NONE', #218 ) ;
#256 = CARTESIAN_POINT ( 'NONE',  ( -9.000000000000000000, 1.102182119232617714E-15, 0.000000000000000000 ) ) ;
#257 = ORIENTED_EDGE ( 'NONE', *, *, #190, .F. ) ;
#258 = PERSON_AND_ORGANIZATION_ROLE ( 'design_supplier' ) ;
#259 = APPROVAL_PERSON_ORGANIZATION ( #203, #95, #272 ) ;
#260 = ORIENTED_EDGE ( 'NONE', *, *, #266, .T. ) ;
#261 = SHAPE_DEFINITION_REPRESENTATION ( #32, #34 ) ;
#262 = CYLINDRICAL_SURFACE ( 'NONE', #45, 25.00000000000000000 ) ;
#263 = EDGE_LOOP ( 'NONE', ( #73, #310, #159, #132 ) ) ;
#264 = LINE ( 'NONE', #215, #250 ) ;
#265 = EDGE_LOOP ( 'NONE', ( #35, #84 ) ) ;
#266 = EDGE_CURVE ( 'NONE', #39, #213, #90, .T. ) ;
#267 = FACE_OUTER_BOUND ( 'NONE', #42, .T. ) ;
#268 = VECTOR ( 'NONE', #216, 1000.000000000000000 ) ;
#269 = VECTOR ( 'NONE', #152, 1000.000000000000000 ) ;
#270 = DIRECTION ( 'NONE',  ( -1.000000000000000000, 0.000000000000000000, 0.000000000000000000 ) ) ;
#271 = CARTESIAN_POINT ( 'NONE',  ( -25.00000000000000000, 3.061616997868383043E-15, 32.00000000000000000 ) ) ;
#272 = APPROVAL_ROLE ( '' ) ;
#273 = AXIS2_PLACEMENT_3D ( 'NONE', #323, #168, #94 ) ;
#274 = APPROVAL ( #163, 'UNSPECIFIED' ) ;
#275 = CIRCLE ( 'NONE', #223, 25.00000000000000000 ) ;
#276 = PRODUCT_DEFINITION_FORMATION_WITH_SPECIFIED_SOURCE ( 'ANY', '', #81, .NOT_KNOWN. ) ;
#277 = EDGE_LOOP ( 'NONE', ( #228, #286, #183, #254 ) ) ;
#278 = DIRECTION ( 'NONE',  ( 0.000000000000000000, 0.000000000000000000, 1.000000000000000000 ) ) ;
#279 = PLANE ( 'NONE',  #282 ) ;
#280 = EDGE_LOOP ( 'NONE', ( #257, #6, #320, #13 ) ) ;
#281 = CIRCLE ( 'NONE', #300, 9.000000000000000000 ) ;
#282 = AXIS2_PLACEMENT_3D ( 'NONE', #210, #158, #41 ) ;
#283 = ORIENTED_EDGE ( 'NONE', *, *, #14, .T. ) ;
#284 = EDGE_CURVE ( 'NONE', #164, #255, #230, .T. ) ;
#285 = DIRECTION ( 'NONE',  ( 1.000000000000000000, 0.000000000000000000, 0.000000000000000000 ) ) ;
#286 = ORIENTED_EDGE ( 'NONE', *, *, #284, .F. ) ;
#287 = EDGE_CURVE ( 'NONE', #88, #139, #211, .T. ) ;
#288 = CYLINDRICAL_SURFACE ( 'NONE', #151, 25.00000000000000000 ) ;
#289 = VERTEX_POINT ( 'NONE', #256 ) ;
#290 = CALENDAR_DATE ( 2021, 25, 10 ) ;
#291 = DIRECTION ( 'NONE',  ( 0.000000000000000000, 0.000000000000000000, 1.000000000000000000 ) ) ;
#292 = CIRCLE ( 'NONE', #273, 9.000000000000000000 ) ;
#293 = ORIENTED_EDGE ( 'NONE', *, *, #190, .T. ) ;
#294 = CARTESIAN_POINT ( 'NONE',  ( 0.000000000000000000, 0.000000000000000000, 0.000000000000000000 ) ) ;
#295 = EDGE_CURVE ( 'NONE', #67, #9, #329, .T. ) ;
#296 = DATE_AND_TIME ( #188, #185 ) ;
#297 = CARTESIAN_POINT ( 'NONE',  ( 9.000000000000000000, 0.000000000000000000, 15.00000000000000000 ) ) ;
#298 = CARTESIAN_POINT ( 'NONE',  ( 9.000000000000000000, 0.000000000000000000, 0.000000000000000000 ) ) ;
#299 = COORDINATED_UNIVERSAL_TIME_OFFSET ( 9, 0, .AHEAD. ) ;
#300 = AXIS2_PLACEMENT_3D ( 'NONE', #17, #307, #322 ) ;
#301 = CIRCLE ( 'NONE', #29, 9.000000000000000000 ) ;
#302 = LOCAL_TIME ( 8, 51, 33.00000000000000000, #114 ) ;
#303 = CARTESIAN_POINT ( 'NONE',  ( 0.000000000000000000, 0.000000000000000000, 0.000000000000000000 ) ) ;
#304 = CARTESIAN_POINT ( 'NONE',  ( 0.000000000000000000, 0.000000000000000000, 32.00000000000000000 ) ) ;
#305 = PERSON_AND_ORGANIZATION_ROLE ( 'creator' ) ;
#306 = PERSON ( 'UNSPECIFIED', 'UNSPECIFIED', 'UNSPECIFIED', ('UNSPECIFIED'), ('UNSPECIFIED'), ('UNSPECIFIED') ) ;
#307 = DIRECTION ( 'NONE',  ( 0.000000000000000000, 0.000000000000000000, 1.000000000000000000 ) ) ;
#308 =( NAMED_UNIT ( * ) SI_UNIT ( $, .STERADIAN. ) SOLID_ANGLE_UNIT ( ) );
#309 = EDGE_CURVE ( 'NONE', #106, #213, #292, .T. ) ;
#310 = ORIENTED_EDGE ( 'NONE', *, *, #2, .T. ) ;
#311 = CC_DESIGN_APPROVAL ( #95, ( #276 ) ) ;
#312 = EDGE_LOOP ( 'NONE', ( #135, #232 ) ) ;
#313 = EDGE_CURVE ( 'NONE', #164, #88, #264, .T. ) ;
#314 = VERTEX_POINT ( 'NONE', #144 ) ;
#315 = ADVANCED_FACE ( 'NONE', ( #239 ), #97, .F. ) ;
#316 = DIRECTION ( 'NONE',  ( 0.000000000000000000, 0.000000000000000000, 1.000000000000000000 ) ) ;
#317 = ORIENTED_EDGE ( 'NONE', *, *, #65, .F. ) ;
#318 = DIRECTION ( 'NONE',  ( 1.000000000000000000, 0.000000000000000000, 0.000000000000000000 ) ) ;
#319 = ORIENTED_EDGE ( 'NONE', *, *, #65, .T. ) ;
#320 = ORIENTED_EDGE ( 'NONE', *, *, #309, .T. ) ;
#321 = DIRECTION ( 'NONE',  ( 1.000000000000000000, 0.000000000000000000, 0.000000000000000000 ) ) ;
#322 = DIRECTION ( 'NONE',  ( 1.000000000000000000, 0.000000000000000000, 0.000000000000000000 ) ) ;
#323 = CARTESIAN_POINT ( 'NONE',  ( 0.000000000000000000, 0.000000000000000000, 15.00000000000000000 ) ) ;
#324 = AXIS2_PLACEMENT_3D ( 'NONE', #117, #11, #189 ) ;
#325 = DIRECTION ( 'NONE',  ( 1.000000000000000000, 0.000000000000000000, 0.000000000000000000 ) ) ;
#326 = DIRECTION ( 'NONE',  ( 1.000000000000000000, 0.000000000000000000, 0.000000000000000000 ) ) ;
#327 = APPROVAL_DATE_TIME ( #174, #161 ) ;
#328 = ADVANCED_FACE ( 'NONE', ( #43 ), #233, .F. ) ;
#329 = CIRCLE ( 'NONE', #51, 25.00000000000000000 ) ;
ENDSEC;
END-ISO-10303-21;
