ISO-10303-21;
HEADER;
FILE_DESCRIPTION (( 'STEP AP203' ),
    '1' );
FILE_NAME ('bj400-12025.STEP',
    '2021-10-24T23:52:05',
    ( '' ),
    ( '' ),
    'SwSTEP 2.0',
    'SolidWorks 2020',
    '' );
FILE_SCHEMA (( 'CONFIG_CONTROL_DESIGN' ));
ENDSEC;

DATA;
#1 = ORIENTED_EDGE ( 'NONE', *, *, #323, .F. ) ;
#2 = PRODUCT_RELATED_PRODUCT_CATEGORY ( 'detail', '', ( #118 ) ) ;
#3 = AXIS2_PLACEMENT_3D ( 'NONE', #187, #207, #135 ) ;
#4 = CARTESIAN_POINT ( 'NONE',  ( 10.00000000000000000, 0.000000000000000000, 12.00000000000000000 ) ) ;
#5 = ORIENTED_EDGE ( 'NONE', *, *, #274, .T. ) ;
#6 = DIRECTION ( 'NONE',  ( 1.000000000000000000, 0.000000000000000000, 0.000000000000000000 ) ) ;
#7 = APPLICATION_CONTEXT ( 'configuration controlled 3d designs of mechanical parts and assemblies' ) ;
#8 = PERSON_AND_ORGANIZATION_ROLE ( 'design_supplier' ) ;
#9 = CC_DESIGN_APPROVAL ( #317, ( #152 ) ) ;
#10 = VERTEX_POINT ( 'NONE', #261 ) ;
#11 = ORIENTED_EDGE ( 'NONE', *, *, #329, .F. ) ;
#12 = CALENDAR_DATE ( 2021, 25, 10 ) ;
#13 = DIRECTION ( 'NONE',  ( 0.000000000000000000, 0.000000000000000000, -1.000000000000000000 ) ) ;
#14 = PRODUCT_DEFINITION ( 'UNKNOWN', '', #152, #255 ) ;
#15 = CARTESIAN_POINT ( 'NONE',  ( 0.000000000000000000, 0.000000000000000000, 40.00000000000000000 ) ) ;
#16 =( GEOMETRIC_REPRESENTATION_CONTEXT ( 3 ) GLOBAL_UNCERTAINTY_ASSIGNED_CONTEXT ( ( #272 ) ) GLOBAL_UNIT_ASSIGNED_CONTEXT ( ( #286, #53, #305 ) ) REPRESENTATION_CONTEXT ( 'NONE', 'WORKASPACE' ) );
#17 = DIRECTION ( 'NONE',  ( 0.000000000000000000, 0.000000000000000000, 1.000000000000000000 ) ) ;
#18 = DIRECTION ( 'NONE',  ( 1.000000000000000000, 0.000000000000000000, 0.000000000000000000 ) ) ;
#19 = DIRECTION ( 'NONE',  ( 1.000000000000000000, 0.000000000000000000, 0.000000000000000000 ) ) ;
#20 = EDGE_CURVE ( 'NONE', #28, #85, #320, .T. ) ;
#21 = DIRECTION ( 'NONE',  ( 1.000000000000000000, 0.000000000000000000, 0.000000000000000000 ) ) ;
#22 = DIRECTION ( 'NONE',  ( 0.000000000000000000, 0.000000000000000000, 1.000000000000000000 ) ) ;
#23 = CARTESIAN_POINT ( 'NONE',  ( 10.00000000000000000, 0.000000000000000000, 40.00000000000000000 ) ) ;
#24 = LOCAL_TIME ( 8, 52, 5.000000000000000000, #248 ) ;
#25 = LINE ( 'NONE', #297, #179 ) ;
#26 = ADVANCED_FACE ( 'NONE', ( #56, #37 ), #139, .F. ) ;
#27 = CALENDAR_DATE ( 2021, 25, 10 ) ;
#28 = VERTEX_POINT ( 'NONE', #315 ) ;
#29 = AXIS2_PLACEMENT_3D ( 'NONE', #93, #48, #145 ) ;
#30 = ORIENTED_EDGE ( 'NONE', *, *, #62, .F. ) ;
#31 = ORIENTED_EDGE ( 'NONE', *, *, #62, .T. ) ;
#32 = APPROVAL_DATE_TIME ( #253, #289 ) ;
#33 = CC_DESIGN_APPROVAL ( #289, ( #14 ) ) ;
#34 = DATE_AND_TIME ( #257, #98 ) ;
#35 = DIRECTION ( 'NONE',  ( -1.000000000000000000, 0.000000000000000000, 0.000000000000000000 ) ) ;
#36 = APPROVAL_DATE_TIME ( #34, #317 ) ;
#37 = FACE_OUTER_BOUND ( 'NONE', #262, .T. ) ;
#38 = ADVANCED_FACE ( 'NONE', ( #157 ), #259, .F. ) ;
#39 = ORIENTED_EDGE ( 'NONE', *, *, #304, .F. ) ;
#40 = EDGE_LOOP ( 'NONE', ( #39, #102 ) ) ;
#41 = CARTESIAN_POINT ( 'NONE',  ( -20.00000000000000000, 2.449293598294706513E-15, 40.00000000000000000 ) ) ;
#42 = CALENDAR_DATE ( 2021, 25, 10 ) ;
#43 = DIRECTION ( 'NONE',  ( 0.000000000000000000, 0.000000000000000000, 1.000000000000000000 ) ) ;
#44 = CARTESIAN_POINT ( 'NONE',  ( 0.000000000000000000, 0.000000000000000000, 0.000000000000000000 ) ) ;
#45 = LINE ( 'NONE', #201, #192 ) ;
#46 = AXIS2_PLACEMENT_3D ( 'NONE', #150, #308, #6 ) ;
#47 = FACE_OUTER_BOUND ( 'NONE', #154, .T. ) ;
#48 = DIRECTION ( 'NONE',  ( 0.000000000000000000, 0.000000000000000000, 1.000000000000000000 ) ) ;
#49 = CARTESIAN_POINT ( 'NONE',  ( -20.00000000000000000, 2.449293598294706513E-15, 0.000000000000000000 ) ) ;
#50 = ADVANCED_FACE ( 'NONE', ( #292 ), #168, .T. ) ;
#51 = CYLINDRICAL_SURFACE ( 'NONE', #322, 20.00000000000000000 ) ;
#52 = AXIS2_PLACEMENT_3D ( 'NONE', #177, #229, #19 ) ;
#53 =( NAMED_UNIT ( * ) PLANE_ANGLE_UNIT ( ) SI_UNIT ( $, .RADIAN. ) );
#54 = ORIENTED_EDGE ( 'NONE', *, *, #250, .T. ) ;
#55 = APPROVAL_STATUS ( 'not_yet_approved' ) ;
#56 = FACE_BOUND ( 'NONE', #40, .T. ) ;
#57 = LOCAL_TIME ( 8, 52, 5.000000000000000000, #191 ) ;
#58 = COORDINATED_UNIVERSAL_TIME_OFFSET ( 9, 0, .AHEAD. ) ;
#59 = ORIENTED_EDGE ( 'NONE', *, *, #162, .F. ) ;
#60 = DIRECTION ( 'NONE',  ( 0.000000000000000000, 0.000000000000000000, 1.000000000000000000 ) ) ;
#61 = ORIENTED_EDGE ( 'NONE', *, *, #101, .F. ) ;
#62 = EDGE_CURVE ( 'NONE', #252, #161, #194, .T. ) ;
#63 = APPROVAL_STATUS ( 'not_yet_approved' ) ;
#64 = EDGE_LOOP ( 'NONE', ( #134, #31, #211, #231 ) ) ;
#65 = SECURITY_CLASSIFICATION_LEVEL ( 'unclassified' ) ;
#66 = ORIENTED_EDGE ( 'NONE', *, *, #20, .T. ) ;
#67 = DIRECTION ( 'NONE',  ( 1.000000000000000000, 0.000000000000000000, 0.000000000000000000 ) ) ;
#68 = DIRECTION ( 'NONE',  ( 1.000000000000000000, 0.000000000000000000, 0.000000000000000000 ) ) ;
#69 = EDGE_CURVE ( 'NONE', #251, #28, #45, .T. ) ;
#70 = APPROVAL_PERSON_ORGANIZATION ( #129, #317, #106 ) ;
#71 = FACE_BOUND ( 'NONE', #100, .T. ) ;
#72 = CC_DESIGN_PERSON_AND_ORGANIZATION_ASSIGNMENT ( #233, #104, ( #152 ) ) ;
#73 = PLANE ( 'NONE',  #221 ) ;
#74 = PRODUCT_DEFINITION_SHAPE ( 'NONE', 'NONE',  #14 ) ;
#75 = CARTESIAN_POINT ( 'NONE',  ( 20.00000000000000000, 0.000000000000000000, 40.00000000000000000 ) ) ;
#76 = APPLICATION_PROTOCOL_DEFINITION ( 'international standard', 'config_control_design', 1994, #7 ) ;
#77 = AXIS2_PLACEMENT_3D ( 'NONE', #170, #267, #228 ) ;
#78 = ORIENTED_EDGE ( 'NONE', *, *, #174, .T. ) ;
#79 = EDGE_LOOP ( 'NONE', ( #30, #196, #214, #11 ) ) ;
#80 = ADVANCED_FACE ( 'NONE', ( #222 ), #273, .F. ) ;
#81 = VERTEX_POINT ( 'NONE', #166 ) ;
#82 = AXIS2_PLACEMENT_3D ( 'NONE', #245, #144, #96 ) ;
#83 = PERSON_AND_ORGANIZATION_ROLE ( 'design_owner' ) ;
#84 = CALENDAR_DATE ( 2021, 25, 10 ) ;
#85 = VERTEX_POINT ( 'NONE', #126 ) ;
#86 = ORIENTED_EDGE ( 'NONE', *, *, #69, .T. ) ;
#87 = VECTOR ( 'NONE', #225, 1000.000000000000000 ) ;
#88 = CARTESIAN_POINT ( 'NONE',  ( 0.000000000000000000, 0.000000000000000000, 12.00000000000000000 ) ) ;
#89 = VERTEX_POINT ( 'NONE', #123 ) ;
#90 = PERSON_AND_ORGANIZATION_ROLE ( 'classification_officer' ) ;
#91 = DIRECTION ( 'NONE',  ( 0.000000000000000000, 0.000000000000000000, 1.000000000000000000 ) ) ;
#92 = PERSON_AND_ORGANIZATION ( #184, #296 ) ;
#93 = CARTESIAN_POINT ( 'NONE',  ( 0.000000000000000000, 0.000000000000000000, 40.00000000000000000 ) ) ;
#94 = DIRECTION ( 'NONE',  ( 0.000000000000000000, 0.000000000000000000, 1.000000000000000000 ) ) ;
#95 = LINE ( 'NONE', #23, #87 ) ;
#96 = DIRECTION ( 'NONE',  ( 1.000000000000000000, 0.000000000000000000, 0.000000000000000000 ) ) ;
#97 = CARTESIAN_POINT ( 'NONE',  ( 0.000000000000000000, 0.000000000000000000, 40.00000000000000000 ) ) ;
#98 = LOCAL_TIME ( 8, 52, 5.000000000000000000, #156 ) ;
#99 = DATE_TIME_ROLE ( 'creation_date' ) ;
#100 = EDGE_LOOP ( 'NONE', ( #188, #54 ) ) ;
#101 = EDGE_CURVE ( 'NONE', #327, #251, #278, .T. ) ;
#102 = ORIENTED_EDGE ( 'NONE', *, *, #288, .F. ) ;
#103 = ORIENTED_EDGE ( 'NONE', *, *, #313, .T. ) ;
#104 = PERSON_AND_ORGANIZATION_ROLE ( 'creator' ) ;
#105 = EDGE_LOOP ( 'NONE', ( #111, #238, #78, #284 ) ) ;
#106 = APPROVAL_ROLE ( '' ) ;
#107 = AXIS2_PLACEMENT_3D ( 'NONE', #310, #213, #217 ) ;
#108 = ORIENTED_EDGE ( 'NONE', *, *, #101, .T. ) ;
#109 = ADVANCED_FACE ( 'NONE', ( #240 ), #117, .F. ) ;
#110 = APPROVAL_ROLE ( '' ) ;
#111 = ORIENTED_EDGE ( 'NONE', *, *, #274, .F. ) ;
#112 = ORIENTED_EDGE ( 'NONE', *, *, #302, .T. ) ;
#113 = APPLICATION_CONTEXT ( 'configuration controlled 3d designs of mechanical parts and assemblies' ) ;
#114 = AXIS2_PLACEMENT_3D ( 'NONE', #220, #13, #35 ) ;
#115 = AXIS2_PLACEMENT_3D ( 'NONE', #88, #215, #236 ) ;
#116 = CARTESIAN_POINT ( 'NONE',  ( 6.000000000000000000, 0.000000000000000000, 0.000000000000000000 ) ) ;
#117 = CYLINDRICAL_SURFACE ( 'NONE', #52, 6.000000000000000000 ) ;
#118 = PRODUCT ( 'bj400-12025', 'bj400-12025', '', ( #180 ) ) ;
#119 = DIRECTION ( 'NONE',  ( 0.000000000000000000, 0.000000000000000000, 1.000000000000000000 ) ) ;
#120 = DIRECTION ( 'NONE',  ( 0.000000000000000000, 0.000000000000000000, 1.000000000000000000 ) ) ;
#121 = CARTESIAN_POINT ( 'NONE',  ( 0.000000000000000000, 0.000000000000000000, 12.00000000000000000 ) ) ;
#122 = ORIENTED_EDGE ( 'NONE', *, *, #329, .T. ) ;
#123 = CARTESIAN_POINT ( 'NONE',  ( 20.00000000000000000, 0.000000000000000000, 0.000000000000000000 ) ) ;
#124 = CC_DESIGN_PERSON_AND_ORGANIZATION_ASSIGNMENT ( #285, #160, ( #14 ) ) ;
#125 = ORIENTED_EDGE ( 'NONE', *, *, #254, .F. ) ;
#126 = CARTESIAN_POINT ( 'NONE',  ( 10.00000000000000000, 0.000000000000000000, 25.00000000000000000 ) ) ;
#127 = ORIENTED_EDGE ( 'NONE', *, *, #69, .F. ) ;
#128 = EDGE_CURVE ( 'NONE', #89, #10, #204, .T. ) ;
#129 = PERSON_AND_ORGANIZATION ( #184, #296 ) ;
#130 = ORIENTED_EDGE ( 'NONE', *, *, #174, .F. ) ;
#131 = VECTOR ( 'NONE', #239, 1000.000000000000000 ) ;
#132 = APPROVAL_PERSON_ORGANIZATION ( #155, #289, #230 ) ;
#133 = PERSON_AND_ORGANIZATION ( #184, #296 ) ;
#134 = ORIENTED_EDGE ( 'NONE', *, *, #323, .T. ) ;
#135 = DIRECTION ( 'NONE',  ( 1.000000000000000000, 0.000000000000000000, 0.000000000000000000 ) ) ;
#136 = VERTEX_POINT ( 'NONE', #173 ) ;
#137 = DATE_AND_TIME ( #42, #208 ) ;
#138 = CC_DESIGN_PERSON_AND_ORGANIZATION_ASSIGNMENT ( #307, #83, ( #118 ) ) ;
#139 = PLANE ( 'NONE',  #114 ) ;
#140 = DIRECTION ( 'NONE',  ( 0.000000000000000000, 0.000000000000000000, 1.000000000000000000 ) ) ;
#141 = CARTESIAN_POINT ( 'NONE',  ( -10.00000000000000000, 1.224646799147353256E-15, 12.00000000000000000 ) ) ;
#142 = CIRCLE ( 'NONE', #107, 20.00000000000000000 ) ;
#143 = DIRECTION ( 'NONE',  ( 1.000000000000000000, 0.000000000000000000, 0.000000000000000000 ) ) ;
#144 = DIRECTION ( 'NONE',  ( 0.000000000000000000, 0.000000000000000000, 1.000000000000000000 ) ) ;
#145 = DIRECTION ( 'NONE',  ( 1.000000000000000000, 0.000000000000000000, 0.000000000000000000 ) ) ;
#146 = MANIFOLD_SOLID_BREP ( 'Imported1', #300 ) ;
#147 = AXIS2_PLACEMENT_3D ( 'NONE', #312, #91, #165 ) ;
#148 = AXIS2_PLACEMENT_3D ( 'NONE', #318, #324, #325 ) ;
#149 = DIRECTION ( 'NONE',  ( 0.000000000000000000, 0.000000000000000000, 1.000000000000000000 ) ) ;
#150 = CARTESIAN_POINT ( 'NONE',  ( 0.000000000000000000, 0.000000000000000000, 0.000000000000000000 ) ) ;
#151 = EDGE_LOOP ( 'NONE', ( #306, #5, #163, #130 ) ) ;
#152 = PRODUCT_DEFINITION_FORMATION_WITH_SPECIFIED_SOURCE ( 'ANY', '', #118, .NOT_KNOWN. ) ;
#153 = ORIENTED_EDGE ( 'NONE', *, *, #20, .F. ) ;
#154 = EDGE_LOOP ( 'NONE', ( #1, #125 ) ) ;
#155 = PERSON_AND_ORGANIZATION ( #184, #296 ) ;
#156 = COORDINATED_UNIVERSAL_TIME_OFFSET ( 9, 0, .AHEAD. ) ;
#157 = FACE_OUTER_BOUND ( 'NONE', #181, .T. ) ;
#158 = AXIS2_PLACEMENT_3D ( 'NONE', #234, #140, #67 ) ;
#159 = AXIS2_PLACEMENT_3D ( 'NONE', #260, #60, #185 ) ;
#160 = PERSON_AND_ORGANIZATION_ROLE ( 'creator' ) ;
#161 = VERTEX_POINT ( 'NONE', #271 ) ;
#162 = EDGE_CURVE ( 'NONE', #327, #85, #95, .T. ) ;
#163 = ORIENTED_EDGE ( 'NONE', *, *, #288, .T. ) ;
#164 = APPROVAL_DATE_TIME ( #137, #169 ) ;
#165 = DIRECTION ( 'NONE',  ( 1.000000000000000000, 0.000000000000000000, 0.000000000000000000 ) ) ;
#166 = CARTESIAN_POINT ( 'NONE',  ( -6.000000000000000000, 7.347880794884119736E-16, 12.00000000000000000 ) ) ;
#167 = PERSON_AND_ORGANIZATION ( #184, #296 ) ;
#168 = CYLINDRICAL_SURFACE ( 'NONE', #182, 20.00000000000000000 ) ;
#169 = APPROVAL ( #63, 'UNSPECIFIED' ) ;
#170 = CARTESIAN_POINT ( 'NONE',  ( 0.000000000000000000, 0.000000000000000000, 25.00000000000000000 ) ) ;
#171 = FACE_BOUND ( 'NONE', #216, .T. ) ;
#172 = VECTOR ( 'NONE', #244, 1000.000000000000000 ) ;
#173 = CARTESIAN_POINT ( 'NONE',  ( 6.000000000000000000, 0.000000000000000000, 12.00000000000000000 ) ) ;
#174 = EDGE_CURVE ( 'NONE', #190, #136, #25, .T. ) ;
#175 = DIRECTION ( 'NONE',  ( 0.000000000000000000, 0.000000000000000000, 1.000000000000000000 ) ) ;
#176 = FACE_OUTER_BOUND ( 'NONE', #105, .T. ) ;
#177 = CARTESIAN_POINT ( 'NONE',  ( 0.000000000000000000, 0.000000000000000000, 40.00000000000000000 ) ) ;
#178 = AXIS2_PLACEMENT_3D ( 'NONE', #303, #183, #223 ) ;
#179 = VECTOR ( 'NONE', #17, 1000.000000000000000 ) ;
#180 = MECHANICAL_CONTEXT ( 'NONE', #7, 'mechanical' ) ;
#181 = EDGE_LOOP ( 'NONE', ( #127, #61, #186, #112 ) ) ;
#182 = AXIS2_PLACEMENT_3D ( 'NONE', #266, #43, #256 ) ;
#183 = DIRECTION ( 'NONE',  ( 0.000000000000000000, 0.000000000000000000, 1.000000000000000000 ) ) ;
#184 = PERSON ( 'UNSPECIFIED', 'UNSPECIFIED', 'UNSPECIFIED', ('UNSPECIFIED'), ('UNSPECIFIED'), ('UNSPECIFIED') ) ;
#185 = DIRECTION ( 'NONE',  ( 1.000000000000000000, 0.000000000000000000, 0.000000000000000000 ) ) ;
#186 = ORIENTED_EDGE ( 'NONE', *, *, #162, .T. ) ;
#187 = CARTESIAN_POINT ( 'NONE',  ( 0.000000000000000000, 0.000000000000000000, 12.00000000000000000 ) ) ;
#188 = ORIENTED_EDGE ( 'NONE', *, *, #268, .T. ) ;
#189 = CIRCLE ( 'NONE', #193, 6.000000000000000000 ) ;
#190 = VERTEX_POINT ( 'NONE', #319 ) ;
#191 = COORDINATED_UNIVERSAL_TIME_OFFSET ( 9, 0, .AHEAD. ) ;
#192 = VECTOR ( 'NONE', #175, 1000.000000000000000 ) ;
#193 = AXIS2_PLACEMENT_3D ( 'NONE', #121, #269, #143 ) ;
#194 = LINE ( 'NONE', #41, #131 ) ;
#195 = SHAPE_DEFINITION_REPRESENTATION ( #74, #212 ) ;
#196 = ORIENTED_EDGE ( 'NONE', *, *, #254, .T. ) ;
#197 = LINE ( 'NONE', #294, #172 ) ;
#198 = DIRECTION ( 'NONE',  ( 0.000000000000000000, 0.000000000000000000, 1.000000000000000000 ) ) ;
#199 = ADVANCED_FACE ( 'NONE', ( #47, #71 ), #73, .F. ) ;
#200 = CC_DESIGN_APPROVAL ( #169, ( #206 ) ) ;
#201 = CARTESIAN_POINT ( 'NONE',  ( -10.00000000000000000, 1.224646799147353256E-15, 40.00000000000000000 ) ) ;
#202 = DIRECTION ( 'NONE',  ( 1.000000000000000000, 0.000000000000000000, 0.000000000000000000 ) ) ;
#203 = CARTESIAN_POINT ( 'NONE',  ( 0.000000000000000000, 0.000000000000000000, 0.000000000000000000 ) ) ;
#204 = LINE ( 'NONE', #75, #205 ) ;
#205 = VECTOR ( 'NONE', #120, 1000.000000000000000 ) ;
#206 = SECURITY_CLASSIFICATION ( '', '', #65 ) ;
#207 = DIRECTION ( 'NONE',  ( 0.000000000000000000, 0.000000000000000000, 1.000000000000000000 ) ) ;
#208 = LOCAL_TIME ( 8, 52, 5.000000000000000000, #219 ) ;
#209 = ORIENTED_EDGE ( 'NONE', *, *, #242, .T. ) ;
#210 = APPLICATION_PROTOCOL_DEFINITION ( 'international standard', 'config_control_design', 1994, #113 ) ;
#211 = ORIENTED_EDGE ( 'NONE', *, *, #242, .F. ) ;
#212 = ADVANCED_BREP_SHAPE_REPRESENTATION ( 'bj400-12025', ( #146, #46 ), #16 ) ;
#213 = DIRECTION ( 'NONE',  ( 0.000000000000000000, 0.000000000000000000, 1.000000000000000000 ) ) ;
#214 = ORIENTED_EDGE ( 'NONE', *, *, #128, .T. ) ;
#215 = DIRECTION ( 'NONE',  ( 0.000000000000000000, 0.000000000000000000, 1.000000000000000000 ) ) ;
#216 = EDGE_LOOP ( 'NONE', ( #218, #153 ) ) ;
#217 = DIRECTION ( 'NONE',  ( 1.000000000000000000, 0.000000000000000000, 0.000000000000000000 ) ) ;
#218 = ORIENTED_EDGE ( 'NONE', *, *, #302, .F. ) ;
#219 = COORDINATED_UNIVERSAL_TIME_OFFSET ( 9, 0, .AHEAD. ) ;
#220 = CARTESIAN_POINT ( 'NONE',  ( 10.00000000000000000, 0.000000000000000000, 12.00000000000000000 ) ) ;
#221 = AXIS2_PLACEMENT_3D ( 'NONE', #116, #94, #227 ) ;
#222 = FACE_OUTER_BOUND ( 'NONE', #309, .T. ) ;
#223 = DIRECTION ( 'NONE',  ( 1.000000000000000000, 0.000000000000000000, 0.000000000000000000 ) ) ;
#224 = ADVANCED_FACE ( 'NONE', ( #171, #243 ), #299, .F. ) ;
#225 = DIRECTION ( 'NONE',  ( 0.000000000000000000, 0.000000000000000000, 1.000000000000000000 ) ) ;
#226 = CC_DESIGN_DATE_AND_TIME_ASSIGNMENT ( #265, #290, ( #206 ) ) ;
#227 = DIRECTION ( 'NONE',  ( 1.000000000000000000, 0.000000000000000000, 0.000000000000000000 ) ) ;
#228 = DIRECTION ( 'NONE',  ( 1.000000000000000000, 0.000000000000000000, 0.000000000000000000 ) ) ;
#229 = DIRECTION ( 'NONE',  ( 0.000000000000000000, 0.000000000000000000, 1.000000000000000000 ) ) ;
#230 = APPROVAL_ROLE ( '' ) ;
#231 = ORIENTED_EDGE ( 'NONE', *, *, #128, .F. ) ;
#232 = ADVANCED_FACE ( 'NONE', ( #176 ), #298, .F. ) ;
#233 = PERSON_AND_ORGANIZATION ( #184, #296 ) ;
#234 = CARTESIAN_POINT ( 'NONE',  ( 0.000000000000000000, 0.000000000000000000, 40.00000000000000000 ) ) ;
#235 = CC_DESIGN_PERSON_AND_ORGANIZATION_ASSIGNMENT ( #92, #90, ( #206 ) ) ;
#236 = DIRECTION ( 'NONE',  ( 1.000000000000000000, 0.000000000000000000, 0.000000000000000000 ) ) ;
#237 = EDGE_LOOP ( 'NONE', ( #209, #122 ) ) ;
#238 = ORIENTED_EDGE ( 'NONE', *, *, #268, .F. ) ;
#239 = DIRECTION ( 'NONE',  ( 0.000000000000000000, 0.000000000000000000, 1.000000000000000000 ) ) ;
#240 = FACE_OUTER_BOUND ( 'NONE', #151, .T. ) ;
#241 = CIRCLE ( 'NONE', #287, 6.000000000000000000 ) ;
#242 = EDGE_CURVE ( 'NONE', #10, #161, #311, .T. ) ;
#243 = FACE_OUTER_BOUND ( 'NONE', #237, .T. ) ;
#244 = DIRECTION ( 'NONE',  ( 0.000000000000000000, 0.000000000000000000, 1.000000000000000000 ) ) ;
#245 = CARTESIAN_POINT ( 'NONE',  ( 0.000000000000000000, 0.000000000000000000, 0.000000000000000000 ) ) ;
#246 = AXIS2_PLACEMENT_3D ( 'NONE', #295, #119, #202 ) ;
#247 = CARTESIAN_POINT ( 'NONE',  ( -6.000000000000000000, 7.347880794884119736E-16, 0.000000000000000000 ) ) ;
#248 = COORDINATED_UNIVERSAL_TIME_OFFSET ( 9, 0, .AHEAD. ) ;
#249 = CIRCLE ( 'NONE', #115, 10.00000000000000000 ) ;
#250 = EDGE_CURVE ( 'NONE', #283, #190, #301, .T. ) ;
#251 = VERTEX_POINT ( 'NONE', #141 ) ;
#252 = VERTEX_POINT ( 'NONE', #49 ) ;
#253 = DATE_AND_TIME ( #84, #279 ) ;
#254 = EDGE_CURVE ( 'NONE', #252, #89, #291, .T. ) ;
#255 = DESIGN_CONTEXT ( 'detailed design', #113, 'design' ) ;
#256 = DIRECTION ( 'NONE',  ( 1.000000000000000000, 0.000000000000000000, 0.000000000000000000 ) ) ;
#257 = CALENDAR_DATE ( 2021, 25, 10 ) ;
#258 = CIRCLE ( 'NONE', #159, 20.00000000000000000 ) ;
#259 = CYLINDRICAL_SURFACE ( 'NONE', #158, 10.00000000000000000 ) ;
#260 = CARTESIAN_POINT ( 'NONE',  ( 0.000000000000000000, 0.000000000000000000, 0.000000000000000000 ) ) ;
#261 = CARTESIAN_POINT ( 'NONE',  ( 20.00000000000000000, 0.000000000000000000, 25.00000000000000000 ) ) ;
#262 = EDGE_LOOP ( 'NONE', ( #108, #103 ) ) ;
#263 = AXIS2_PLACEMENT_3D ( 'NONE', #44, #321, #275 ) ;
#264 = ORIENTED_EDGE ( 'NONE', *, *, #313, .F. ) ;
#265 = DATE_AND_TIME ( #12, #57 ) ;
#266 = CARTESIAN_POINT ( 'NONE',  ( 0.000000000000000000, 0.000000000000000000, 40.00000000000000000 ) ) ;
#267 = DIRECTION ( 'NONE',  ( 0.000000000000000000, 0.000000000000000000, 1.000000000000000000 ) ) ;
#268 = EDGE_CURVE ( 'NONE', #190, #283, #241, .T. ) ;
#269 = DIRECTION ( 'NONE',  ( 0.000000000000000000, 0.000000000000000000, 1.000000000000000000 ) ) ;
#270 = CIRCLE ( 'NONE', #3, 6.000000000000000000 ) ;
#271 = CARTESIAN_POINT ( 'NONE',  ( -20.00000000000000000, 2.449293598294706513E-15, 25.00000000000000000 ) ) ;
#272 = UNCERTAINTY_MEASURE_WITH_UNIT (LENGTH_MEASURE( 1.000000000000000082E-05 ), #286, 'distance_accuracy_value', 'NONE');
#273 = CYLINDRICAL_SURFACE ( 'NONE', #314, 10.00000000000000000 ) ;
#274 = EDGE_CURVE ( 'NONE', #283, #81, #197, .T. ) ;
#275 = DIRECTION ( 'NONE',  ( 1.000000000000000000, 0.000000000000000000, 0.000000000000000000 ) ) ;
#276 = CC_DESIGN_DATE_AND_TIME_ASSIGNMENT ( #326, #99, ( #14 ) ) ;
#277 = FACE_OUTER_BOUND ( 'NONE', #79, .T. ) ;
#278 = CIRCLE ( 'NONE', #178, 10.00000000000000000 ) ;
#279 = LOCAL_TIME ( 8, 52, 5.000000000000000000, #58 ) ;
#280 = APPROVAL_STATUS ( 'not_yet_approved' ) ;
#281 = ADVANCED_FACE ( 'NONE', ( #277 ), #51, .T. ) ;
#282 = APPROVAL_PERSON_ORGANIZATION ( #167, #169, #110 ) ;
#283 = VERTEX_POINT ( 'NONE', #247 ) ;
#284 = ORIENTED_EDGE ( 'NONE', *, *, #304, .T. ) ;
#285 = PERSON_AND_ORGANIZATION ( #184, #296 ) ;
#286 =( LENGTH_UNIT ( ) NAMED_UNIT ( * ) SI_UNIT ( .MILLI., .METRE. ) );
#287 = AXIS2_PLACEMENT_3D ( 'NONE', #203, #198, #68 ) ;
#288 = EDGE_CURVE ( 'NONE', #81, #136, #189, .T. ) ;
#289 = APPROVAL ( #280, 'UNSPECIFIED' ) ;
#290 = DATE_TIME_ROLE ( 'classification_date' ) ;
#291 = CIRCLE ( 'NONE', #82, 20.00000000000000000 ) ;
#292 = FACE_OUTER_BOUND ( 'NONE', #64, .T. ) ;
#293 = CC_DESIGN_PERSON_AND_ORGANIZATION_ASSIGNMENT ( #133, #8, ( #152 ) ) ;
#294 = CARTESIAN_POINT ( 'NONE',  ( -6.000000000000000000, 7.347880794884119736E-16, 40.00000000000000000 ) ) ;
#295 = CARTESIAN_POINT ( 'NONE',  ( 0.000000000000000000, 0.000000000000000000, 25.00000000000000000 ) ) ;
#296 = ORGANIZATION ( 'UNSPECIFIED', 'UNSPECIFIED', '' ) ;
#297 = CARTESIAN_POINT ( 'NONE',  ( 6.000000000000000000, 0.000000000000000000, 40.00000000000000000 ) ) ;
#298 = CYLINDRICAL_SURFACE ( 'NONE', #29, 6.000000000000000000 ) ;
#299 = PLANE ( 'NONE',  #148 ) ;
#300 = CLOSED_SHELL ( 'NONE', ( #80, #50, #109, #232, #199, #281, #224, #38, #26 ) ) ;
#301 = CIRCLE ( 'NONE', #263, 6.000000000000000000 ) ;
#302 = EDGE_CURVE ( 'NONE', #85, #28, #316, .T. ) ;
#303 = CARTESIAN_POINT ( 'NONE',  ( 0.000000000000000000, 0.000000000000000000, 12.00000000000000000 ) ) ;
#304 = EDGE_CURVE ( 'NONE', #136, #81, #270, .T. ) ;
#305 =( NAMED_UNIT ( * ) SI_UNIT ( $, .STERADIAN. ) SOLID_ANGLE_UNIT ( ) );
#306 = ORIENTED_EDGE ( 'NONE', *, *, #250, .F. ) ;
#307 = PERSON_AND_ORGANIZATION ( #184, #296 ) ;
#308 = DIRECTION ( 'NONE',  ( 0.000000000000000000, 0.000000000000000000, 1.000000000000000000 ) ) ;
#309 = EDGE_LOOP ( 'NONE', ( #264, #86, #66, #59 ) ) ;
#310 = CARTESIAN_POINT ( 'NONE',  ( 0.000000000000000000, 0.000000000000000000, 25.00000000000000000 ) ) ;
#311 = CIRCLE ( 'NONE', #77, 20.00000000000000000 ) ;
#312 = CARTESIAN_POINT ( 'NONE',  ( 0.000000000000000000, 0.000000000000000000, 25.00000000000000000 ) ) ;
#313 = EDGE_CURVE ( 'NONE', #251, #327, #249, .T. ) ;
#314 = AXIS2_PLACEMENT_3D ( 'NONE', #15, #22, #18 ) ;
#315 = CARTESIAN_POINT ( 'NONE',  ( -10.00000000000000000, 1.224646799147353256E-15, 25.00000000000000000 ) ) ;
#316 = CIRCLE ( 'NONE', #246, 10.00000000000000000 ) ;
#317 = APPROVAL ( #55, 'UNSPECIFIED' ) ;
#318 = CARTESIAN_POINT ( 'NONE',  ( 20.00000000000000000, 0.000000000000000000, 25.00000000000000000 ) ) ;
#319 = CARTESIAN_POINT ( 'NONE',  ( 6.000000000000000000, 0.000000000000000000, 0.000000000000000000 ) ) ;
#320 = CIRCLE ( 'NONE', #147, 10.00000000000000000 ) ;
#321 = DIRECTION ( 'NONE',  ( 0.000000000000000000, 0.000000000000000000, 1.000000000000000000 ) ) ;
#322 = AXIS2_PLACEMENT_3D ( 'NONE', #97, #149, #21 ) ;
#323 = EDGE_CURVE ( 'NONE', #89, #252, #258, .T. ) ;
#324 = DIRECTION ( 'NONE',  ( 0.000000000000000000, 0.000000000000000000, -1.000000000000000000 ) ) ;
#325 = DIRECTION ( 'NONE',  ( -1.000000000000000000, 0.000000000000000000, 0.000000000000000000 ) ) ;
#326 = DATE_AND_TIME ( #27, #24 ) ;
#327 = VERTEX_POINT ( 'NONE', #4 ) ;
#328 = CC_DESIGN_SECURITY_CLASSIFICATION ( #206, ( #152 ) ) ;
#329 = EDGE_CURVE ( 'NONE', #161, #10, #142, .T. ) ;
ENDSEC;
END-ISO-10303-21;
