ISO-10303-21;
HEADER;
FILE_DESCRIPTION (( 'STEP AP203' ),
    '1' );
FILE_NAME ('bj401-10002.STEP',
    '2021-10-24T23:52:31',
    ( '' ),
    ( '' ),
    'SwSTEP 2.0',
    'SolidWorks 2020',
    '' );
FILE_SCHEMA (( 'CONFIG_CONTROL_DESIGN' ));
ENDSEC;

DATA;
#1 = APPROVAL ( #164, 'UNSPECIFIED' ) ;
#2 = CARTESIAN_POINT ( 'NONE',  ( 0.000000000000000000, 0.000000000000000000, -12.00000000000000000 ) ) ;
#3 = VERTEX_POINT ( 'NONE', #285 ) ;
#4 = EDGE_CURVE ( 'NONE', #397, #330, #71, .T. ) ;
#5 = PRODUCT ( 'bj401-10002', 'bj401-10002', '', ( #21 ) ) ;
#6 = APPROVAL_ROLE ( '' ) ;
#7 = PERSON_AND_ORGANIZATION ( #392, #12 ) ;
#8 = ORIENTED_EDGE ( 'NONE', *, *, #103, .T. ) ;
#9 = CC_DESIGN_DATE_AND_TIME_ASSIGNMENT ( #289, #315, ( #319 ) ) ;
#10 = ORIENTED_EDGE ( 'NONE', *, *, #402, .T. ) ;
#11 = DIRECTION ( 'NONE',  ( 0.000000000000000000, 0.000000000000000000, 1.000000000000000000 ) ) ;
#12 = ORGANIZATION ( 'UNSPECIFIED', 'UNSPECIFIED', '' ) ;
#13 = LINE ( 'NONE', #321, #190 ) ;
#14 = EDGE_LOOP ( 'NONE', ( #43, #322 ) ) ;
#15 = CARTESIAN_POINT ( 'NONE',  ( 0.000000000000000000, 0.000000000000000000, 0.000000000000000000 ) ) ;
#16 = ORIENTED_EDGE ( 'NONE', *, *, #125, .F. ) ;
#17 = VERTEX_POINT ( 'NONE', #40 ) ;
#18 = DIRECTION ( 'NONE',  ( 1.000000000000000000, 0.000000000000000000, 0.000000000000000000 ) ) ;
#19 = FACE_OUTER_BOUND ( 'NONE', #405, .T. ) ;
#20 = AXIS2_PLACEMENT_3D ( 'NONE', #176, #53, #114 ) ;
#21 = MECHANICAL_CONTEXT ( 'NONE', #280, 'mechanical' ) ;
#22 = DIRECTION ( 'NONE',  ( 0.000000000000000000, 0.000000000000000000, 1.000000000000000000 ) ) ;
#23 = EDGE_LOOP ( 'NONE', ( #268, #141, #107, #207 ) ) ;
#24 = APPROVAL_STATUS ( 'not_yet_approved' ) ;
#25 = EDGE_CURVE ( 'NONE', #246, #165, #116, .T. ) ;
#26 = ORIENTED_EDGE ( 'NONE', *, *, #301, .T. ) ;
#27 = DIRECTION ( 'NONE',  ( 1.000000000000000000, 0.000000000000000000, 0.000000000000000000 ) ) ;
#28 = DIRECTION ( 'NONE',  ( 0.000000000000000000, 0.000000000000000000, 1.000000000000000000 ) ) ;
#29 = AXIS2_PLACEMENT_3D ( 'NONE', #238, #331, #201 ) ;
#30 = CARTESIAN_POINT ( 'NONE',  ( 0.000000000000000000, 0.000000000000000000, 0.000000000000000000 ) ) ;
#31 = EDGE_LOOP ( 'NONE', ( #111, #211 ) ) ;
#32 = CYLINDRICAL_SURFACE ( 'NONE', #124, 15.00000000000000000 ) ;
#33 = CARTESIAN_POINT ( 'NONE',  ( 0.000000000000000000, 0.000000000000000000, 35.00000000000000000 ) ) ;
#34 = CALENDAR_DATE ( 2021, 25, 10 ) ;
#35 = FACE_OUTER_BOUND ( 'NONE', #317, .T. ) ;
#36 = CIRCLE ( 'NONE', #384, 5.500000000000000000 ) ;
#37 = PERSON_AND_ORGANIZATION ( #392, #12 ) ;
#38 = ORIENTED_EDGE ( 'NONE', *, *, #264, .T. ) ;
#39 = PRODUCT_RELATED_PRODUCT_CATEGORY ( 'detail', '', ( #5 ) ) ;
#40 = CARTESIAN_POINT ( 'NONE',  ( -10.00000000000000000, 1.224646799147353256E-15, 0.000000000000000000 ) ) ;
#41 = COORDINATED_UNIVERSAL_TIME_OFFSET ( 9, 0, .AHEAD. ) ;
#42 = CIRCLE ( 'NONE', #378, 9.000000000000000000 ) ;
#43 = ORIENTED_EDGE ( 'NONE', *, *, #192, .T. ) ;
#44 = ORIENTED_EDGE ( 'NONE', *, *, #250, .T. ) ;
#45 = DIRECTION ( 'NONE',  ( 1.000000000000000000, 0.000000000000000000, 0.000000000000000000 ) ) ;
#46 = DIRECTION ( 'NONE',  ( -1.000000000000000000, 0.000000000000000000, 0.000000000000000000 ) ) ;
#47 = ORIENTED_EDGE ( 'NONE', *, *, #56, .F. ) ;
#48 = CARTESIAN_POINT ( 'NONE',  ( 0.000000000000000000, 0.000000000000000000, -12.00000000000000000 ) ) ;
#49 = AXIS2_PLACEMENT_3D ( 'NONE', #308, #251, #96 ) ;
#50 = CYLINDRICAL_SURFACE ( 'NONE', #316, 15.00000000000000000 ) ;
#51 = EDGE_CURVE ( 'NONE', #363, #330, #121, .T. ) ;
#52 = ORIENTED_EDGE ( 'NONE', *, *, #217, .F. ) ;
#53 = DIRECTION ( 'NONE',  ( 0.000000000000000000, 0.000000000000000000, 1.000000000000000000 ) ) ;
#54 = DIRECTION ( 'NONE',  ( 0.000000000000000000, 0.000000000000000000, 1.000000000000000000 ) ) ;
#55 = ORIENTED_EDGE ( 'NONE', *, *, #217, .T. ) ;
#56 = EDGE_CURVE ( 'NONE', #221, #260, #152, .T. ) ;
#57 = FACE_BOUND ( 'NONE', #31, .T. ) ;
#58 = DIRECTION ( 'NONE',  ( 1.000000000000000000, 0.000000000000000000, 0.000000000000000000 ) ) ;
#59 = VERTEX_POINT ( 'NONE', #295 ) ;
#60 = CARTESIAN_POINT ( 'NONE',  ( 0.000000000000000000, 0.000000000000000000, 18.00000000000000000 ) ) ;
#61 = AXIS2_PLACEMENT_3D ( 'NONE', #129, #253, #182 ) ;
#62 = VERTEX_POINT ( 'NONE', #243 ) ;
#63 = DIRECTION ( 'NONE',  ( 0.000000000000000000, 0.000000000000000000, 1.000000000000000000 ) ) ;
#64 = ADVANCED_FACE ( 'NONE', ( #209 ), #366, .F. ) ;
#65 = EDGE_LOOP ( 'NONE', ( #52, #172, #44, #80 ) ) ;
#66 =( NAMED_UNIT ( * ) PLANE_ANGLE_UNIT ( ) SI_UNIT ( $, .RADIAN. ) );
#67 = DIRECTION ( 'NONE',  ( 0.000000000000000000, 0.000000000000000000, 1.000000000000000000 ) ) ;
#68 = AXIS2_PLACEMENT_3D ( 'NONE', #329, #302, #324 ) ;
#69 = DATE_AND_TIME ( #34, #318 ) ;
#70 = CIRCLE ( 'NONE', #163, 15.00000000000000000 ) ;
#71 = LINE ( 'NONE', #257, #234 ) ;
#72 = PERSON_AND_ORGANIZATION ( #392, #12 ) ;
#73 = ORIENTED_EDGE ( 'NONE', *, *, #235, .T. ) ;
#74 = EDGE_CURVE ( 'NONE', #236, #59, #13, .T. ) ;
#75 = CLOSED_SHELL ( 'NONE', ( #161, #78, #196, #149, #381, #64, #110, #183, #224, #195, #283, #396 ) ) ;
#76 = CC_DESIGN_PERSON_AND_ORGANIZATION_ASSIGNMENT ( #166, #287, ( #242 ) ) ;
#77 = DIRECTION ( 'NONE',  ( 0.000000000000000000, 0.000000000000000000, 1.000000000000000000 ) ) ;
#78 = ADVANCED_FACE ( 'NONE', ( #139 ), #142, .T. ) ;
#79 = CARTESIAN_POINT ( 'NONE',  ( 0.000000000000000000, 0.000000000000000000, 18.00000000000000000 ) ) ;
#80 = ORIENTED_EDGE ( 'NONE', *, *, #74, .F. ) ;
#81 = CARTESIAN_POINT ( 'NONE',  ( 10.00000000000000000, 0.000000000000000000, 0.000000000000000000 ) ) ;
#82 = DIRECTION ( 'NONE',  ( 1.000000000000000000, 0.000000000000000000, 0.000000000000000000 ) ) ;
#83 = DIRECTION ( 'NONE',  ( 0.000000000000000000, 0.000000000000000000, 1.000000000000000000 ) ) ;
#84 = ORIENTED_EDGE ( 'NONE', *, *, #103, .F. ) ;
#85 = DIRECTION ( 'NONE',  ( 0.000000000000000000, 0.000000000000000000, 1.000000000000000000 ) ) ;
#86 = PLANE ( 'NONE',  #97 ) ;
#87 = EDGE_CURVE ( 'NONE', #165, #17, #307, .T. ) ;
#88 = PERSON_AND_ORGANIZATION ( #392, #12 ) ;
#89 = DIRECTION ( 'NONE',  ( 1.000000000000000000, 0.000000000000000000, 0.000000000000000000 ) ) ;
#90 = CIRCLE ( 'NONE', #293, 5.500000000000000000 ) ;
#91 = EDGE_LOOP ( 'NONE', ( #156, #47, #320, #10 ) ) ;
#92 = DIRECTION ( 'NONE',  ( 1.000000000000000000, 0.000000000000000000, 0.000000000000000000 ) ) ;
#93 = CYLINDRICAL_SURFACE ( 'NONE', #387, 5.500000000000000000 ) ;
#94 = CYLINDRICAL_SURFACE ( 'NONE', #130, 5.500000000000000000 ) ;
#95 = FACE_BOUND ( 'NONE', #357, .T. ) ;
#96 = DIRECTION ( 'NONE',  ( 1.000000000000000000, 0.000000000000000000, 0.000000000000000000 ) ) ;
#97 = AXIS2_PLACEMENT_3D ( 'NONE', #333, #395, #46 ) ;
#98 = ORIENTED_EDGE ( 'NONE', *, *, #250, .F. ) ;
#99 = CARTESIAN_POINT ( 'NONE',  ( 0.000000000000000000, 0.000000000000000000, 24.00000000000000000 ) ) ;
#100 = CALENDAR_DATE ( 2021, 25, 10 ) ;
#101 = LINE ( 'NONE', #360, #167 ) ;
#102 = CIRCLE ( 'NONE', #105, 9.000000000000000000 ) ;
#103 = EDGE_CURVE ( 'NONE', #236, #393, #102, .T. ) ;
#104 = PERSON_AND_ORGANIZATION_ROLE ( 'classification_officer' ) ;
#105 = AXIS2_PLACEMENT_3D ( 'NONE', #364, #83, #269 ) ;
#106 = LOCAL_TIME ( 8, 52, 31.00000000000000000, #229 ) ;
#107 = ORIENTED_EDGE ( 'NONE', *, *, #4, .T. ) ;
#108 = CC_DESIGN_DATE_AND_TIME_ASSIGNMENT ( #386, #351, ( #146 ) ) ;
#109 = DIRECTION ( 'NONE',  ( 1.000000000000000000, 0.000000000000000000, 0.000000000000000000 ) ) ;
#110 = ADVANCED_FACE ( 'NONE', ( #270, #391 ), #86, .F. ) ;
#111 = ORIENTED_EDGE ( 'NONE', *, *, #56, .T. ) ;
#112 = PLANE ( 'NONE',  #336 ) ;
#113 = AXIS2_PLACEMENT_3D ( 'NONE', #2, #286, #132 ) ;
#114 = DIRECTION ( 'NONE',  ( 1.000000000000000000, 0.000000000000000000, 0.000000000000000000 ) ) ;
#115 = ADVANCED_BREP_SHAPE_REPRESENTATION ( 'bj401-10002', ( #205, #353 ), #347 ) ;
#116 = LINE ( 'NONE', #170, #288 ) ;
#117 = EDGE_LOOP ( 'NONE', ( #127, #84, #241, #177 ) ) ;
#118 = FACE_OUTER_BOUND ( 'NONE', #65, .T. ) ;
#119 = ORIENTED_EDGE ( 'NONE', *, *, #87, .F. ) ;
#120 = CARTESIAN_POINT ( 'NONE',  ( 0.000000000000000000, 0.000000000000000000, 0.000000000000000000 ) ) ;
#121 = CIRCLE ( 'NONE', #281, 15.00000000000000000 ) ;
#122 = DIRECTION ( 'NONE',  ( 0.000000000000000000, 0.000000000000000000, 1.000000000000000000 ) ) ;
#123 = CIRCLE ( 'NONE', #388, 5.500000000000000000 ) ;
#124 = AXIS2_PLACEMENT_3D ( 'NONE', #400, #305, #92 ) ;
#125 = EDGE_CURVE ( 'NONE', #348, #17, #291, .T. ) ;
#126 = CARTESIAN_POINT ( 'NONE',  ( -9.000000000000000000, 1.102182119232617714E-15, 24.00000000000000000 ) ) ;
#127 = ORIENTED_EDGE ( 'NONE', *, *, #239, .F. ) ;
#128 = CARTESIAN_POINT ( 'NONE',  ( 15.00000000000000000, 0.000000000000000000, 0.000000000000000000 ) ) ;
#129 = CARTESIAN_POINT ( 'NONE',  ( 5.500000000000000000, 0.000000000000000000, -12.00000000000000000 ) ) ;
#130 = AXIS2_PLACEMENT_3D ( 'NONE', #155, #28, #371 ) ;
#131 = CALENDAR_DATE ( 2021, 25, 10 ) ;
#132 = DIRECTION ( 'NONE',  ( 1.000000000000000000, 0.000000000000000000, 0.000000000000000000 ) ) ;
#133 = DIRECTION ( 'NONE',  ( 0.000000000000000000, 0.000000000000000000, 1.000000000000000000 ) ) ;
#134 = ORIENTED_EDGE ( 'NONE', *, *, #125, .T. ) ;
#135 = ORIENTED_EDGE ( 'NONE', *, *, #399, .F. ) ;
#136 = LINE ( 'NONE', #355, #263 ) ;
#137 = VERTEX_POINT ( 'NONE', #148 ) ;
#138 = CIRCLE ( 'NONE', #344, 10.00000000000000000 ) ;
#139 = FACE_OUTER_BOUND ( 'NONE', #276, .T. ) ;
#140 = CC_DESIGN_PERSON_AND_ORGANIZATION_ASSIGNMENT ( #346, #311, ( #319 ) ) ;
#141 = ORIENTED_EDGE ( 'NONE', *, *, #154, .T. ) ;
#142 = CYLINDRICAL_SURFACE ( 'NONE', #20, 10.00000000000000000 ) ;
#143 = ORIENTED_EDGE ( 'NONE', *, *, #25, .F. ) ;
#144 = CARTESIAN_POINT ( 'NONE',  ( -15.00000000000000000, 1.836970198721029589E-15, 18.00000000000000000 ) ) ;
#145 = CARTESIAN_POINT ( 'NONE',  ( 0.000000000000000000, 0.000000000000000000, -12.00000000000000000 ) ) ;
#146 = SECURITY_CLASSIFICATION ( '', '', #197 ) ;
#147 = DIRECTION ( 'NONE',  ( 1.000000000000000000, 0.000000000000000000, 0.000000000000000000 ) ) ;
#148 = CARTESIAN_POINT ( 'NONE',  ( 5.500000000000000000, 0.000000000000000000, 24.00000000000000000 ) ) ;
#149 = ADVANCED_FACE ( 'NONE', ( #118 ), #356, .F. ) ;
#150 = FACE_OUTER_BOUND ( 'NONE', #23, .T. ) ;
#151 = VERTEX_POINT ( 'NONE', #390 ) ;
#152 = CIRCLE ( 'NONE', #394, 5.500000000000000000 ) ;
#153 = DIRECTION ( 'NONE',  ( 0.000000000000000000, 0.000000000000000000, 1.000000000000000000 ) ) ;
#154 = EDGE_CURVE ( 'NONE', #151, #397, #334, .T. ) ;
#155 = CARTESIAN_POINT ( 'NONE',  ( 0.000000000000000000, 0.000000000000000000, 18.00000000000000000 ) ) ;
#156 = ORIENTED_EDGE ( 'NONE', *, *, #301, .F. ) ;
#157 =( LENGTH_UNIT ( ) NAMED_UNIT ( * ) SI_UNIT ( .MILLI., .METRE. ) );
#158 = DIRECTION ( 'NONE',  ( 1.000000000000000000, 0.000000000000000000, 0.000000000000000000 ) ) ;
#159 = APPROVAL_ROLE ( '' ) ;
#160 = CARTESIAN_POINT ( 'NONE',  ( 0.000000000000000000, 0.000000000000000000, 35.00000000000000000 ) ) ;
#161 = ADVANCED_FACE ( 'NONE', ( #19 ), #50, .T. ) ;
#162 = AXIS2_PLACEMENT_3D ( 'NONE', #33, #153, #341 ) ;
#163 = AXIS2_PLACEMENT_3D ( 'NONE', #120, #248, #219 ) ;
#164 = APPROVAL_STATUS ( 'not_yet_approved' ) ;
#165 = VERTEX_POINT ( 'NONE', #81 ) ;
#166 = PERSON_AND_ORGANIZATION ( #392, #12 ) ;
#167 = VECTOR ( 'NONE', #389, 1000.000000000000000 ) ;
#168 = APPROVAL_ROLE ( '' ) ;
#169 = CARTESIAN_POINT ( 'NONE',  ( 0.000000000000000000, 0.000000000000000000, -12.00000000000000000 ) ) ;
#170 = CARTESIAN_POINT ( 'NONE',  ( 10.00000000000000000, 0.000000000000000000, 18.00000000000000000 ) ) ;
#171 = AXIS2_PLACEMENT_3D ( 'NONE', #15, #398, #361 ) ;
#172 = ORIENTED_EDGE ( 'NONE', *, *, #239, .T. ) ;
#173 = APPROVAL_PERSON_ORGANIZATION ( #383, #271, #6 ) ;
#174 = DIRECTION ( 'NONE',  ( 0.000000000000000000, 0.000000000000000000, 1.000000000000000000 ) ) ;
#175 = ORIENTED_EDGE ( 'NONE', *, *, #184, .F. ) ;
#176 = CARTESIAN_POINT ( 'NONE',  ( 0.000000000000000000, 0.000000000000000000, 18.00000000000000000 ) ) ;
#177 = ORIENTED_EDGE ( 'NONE', *, *, #232, .T. ) ;
#178 = DIRECTION ( 'NONE',  ( 0.000000000000000000, 0.000000000000000000, 1.000000000000000000 ) ) ;
#179 = DIRECTION ( 'NONE',  ( 0.000000000000000000, 0.000000000000000000, 1.000000000000000000 ) ) ;
#180 = CARTESIAN_POINT ( 'NONE',  ( 0.000000000000000000, 0.000000000000000000, 35.00000000000000000 ) ) ;
#181 = APPLICATION_PROTOCOL_DEFINITION ( 'international standard', 'config_control_design', 1994, #303 ) ;
#182 = DIRECTION ( 'NONE',  ( 1.000000000000000000, 0.000000000000000000, 0.000000000000000000 ) ) ;
#183 = ADVANCED_FACE ( 'NONE', ( #375 ), #94, .F. ) ;
#184 = EDGE_CURVE ( 'NONE', #221, #137, #247, .T. ) ;
#185 = CARTESIAN_POINT ( 'NONE',  ( 0.000000000000000000, 0.000000000000000000, 18.00000000000000000 ) ) ;
#186 = CARTESIAN_POINT ( 'NONE',  ( 0.000000000000000000, 0.000000000000000000, 24.00000000000000000 ) ) ;
#187 = APPROVAL_STATUS ( 'not_yet_approved' ) ;
#188 = PLANE ( 'NONE',  #61 ) ;
#189 = ORIENTED_EDGE ( 'NONE', *, *, #210, .T. ) ;
#190 = VECTOR ( 'NONE', #22, 1000.000000000000000 ) ;
#191 = APPROVAL_PERSON_ORGANIZATION ( #370, #277, #159 ) ;
#192 = EDGE_CURVE ( 'NONE', #330, #363, #292, .T. ) ;
#193 = DATE_AND_TIME ( #131, #215 ) ;
#194 = ORIENTED_EDGE ( 'NONE', *, *, #210, .F. ) ;
#195 = ADVANCED_FACE ( 'NONE', ( #35 ), #368, .T. ) ;
#196 = ADVANCED_FACE ( 'NONE', ( #380 ), #93, .F. ) ;
#197 = SECURITY_CLASSIFICATION_LEVEL ( 'unclassified' ) ;
#198 = APPROVAL_PERSON_ORGANIZATION ( #37, #1, #168 ) ;
#199 = ORIENTED_EDGE ( 'NONE', *, *, #228, .F. ) ;
#200 = CARTESIAN_POINT ( 'NONE',  ( 15.00000000000000000, 0.000000000000000000, 35.00000000000000000 ) ) ;
#201 = DIRECTION ( 'NONE',  ( 1.000000000000000000, 0.000000000000000000, 0.000000000000000000 ) ) ;
#202 = CARTESIAN_POINT ( 'NONE',  ( 0.000000000000000000, 0.000000000000000000, 35.00000000000000000 ) ) ;
#203 = CIRCLE ( 'NONE', #113, 10.00000000000000000 ) ;
#204 = LINE ( 'NONE', #144, #362 ) ;
#205 = MANIFOLD_SOLID_BREP ( 'Imported1', #75 ) ;
#206 = DIRECTION ( 'NONE',  ( 1.000000000000000000, 0.000000000000000000, 0.000000000000000000 ) ) ;
#207 = ORIENTED_EDGE ( 'NONE', *, *, #51, .F. ) ;
#208 = CARTESIAN_POINT ( 'NONE',  ( 10.00000000000000000, 0.000000000000000000, -12.00000000000000000 ) ) ;
#209 = FACE_OUTER_BOUND ( 'NONE', #117, .T. ) ;
#210 = EDGE_CURVE ( 'NONE', #17, #165, #326, .T. ) ;
#211 = ORIENTED_EDGE ( 'NONE', *, *, #337, .T. ) ;
#212 = EDGE_LOOP ( 'NONE', ( #8, #55 ) ) ;
#213 = PERSON_AND_ORGANIZATION_ROLE ( 'design_owner' ) ;
#214 = CIRCLE ( 'NONE', #49, 9.000000000000000000 ) ;
#215 = LOCAL_TIME ( 8, 52, 31.00000000000000000, #255 ) ;
#216 = ORIENTED_EDGE ( 'NONE', *, *, #25, .T. ) ;
#217 = EDGE_CURVE ( 'NONE', #393, #236, #214, .T. ) ;
#218 = DIRECTION ( 'NONE',  ( 0.000000000000000000, 0.000000000000000000, 1.000000000000000000 ) ) ;
#219 = DIRECTION ( 'NONE',  ( 1.000000000000000000, 0.000000000000000000, 0.000000000000000000 ) ) ;
#220 = CARTESIAN_POINT ( 'NONE',  ( 5.500000000000000000, 0.000000000000000000, 18.00000000000000000 ) ) ;
#221 = VERTEX_POINT ( 'NONE', #278 ) ;
#222 = DIRECTION ( 'NONE',  ( 0.000000000000000000, 0.000000000000000000, -1.000000000000000000 ) ) ;
#223 = DIRECTION ( 'NONE',  ( 1.000000000000000000, 0.000000000000000000, 0.000000000000000000 ) ) ;
#224 = ADVANCED_FACE ( 'NONE', ( #407, #57 ), #188, .F. ) ;
#225 = ORIENTED_EDGE ( 'NONE', *, *, #228, .T. ) ;
#226 = DIRECTION ( 'NONE',  ( 0.000000000000000000, 0.000000000000000000, 1.000000000000000000 ) ) ;
#227 = DIRECTION ( 'NONE',  ( 1.000000000000000000, 0.000000000000000000, 0.000000000000000000 ) ) ;
#228 = EDGE_CURVE ( 'NONE', #3, #137, #36, .T. ) ;
#229 = COORDINATED_UNIVERSAL_TIME_OFFSET ( 9, 0, .AHEAD. ) ;
#230 = AXIS2_PLACEMENT_3D ( 'NONE', #60, #122, #89 ) ;
#231 = CC_DESIGN_APPROVAL ( #277, ( #319 ) ) ;
#232 = EDGE_CURVE ( 'NONE', #59, #62, #262, .T. ) ;
#233 = COORDINATED_UNIVERSAL_TIME_OFFSET ( 9, 0, .AHEAD. ) ;
#234 = VECTOR ( 'NONE', #133, 1000.000000000000000 ) ;
#235 = EDGE_CURVE ( 'NONE', #246, #348, #203, .T. ) ;
#236 = VERTEX_POINT ( 'NONE', #256 ) ;
#237 = FACE_OUTER_BOUND ( 'NONE', #354, .T. ) ;
#238 = CARTESIAN_POINT ( 'NONE',  ( 0.000000000000000000, 0.000000000000000000, 0.000000000000000000 ) ) ;
#239 = EDGE_CURVE ( 'NONE', #393, #62, #101, .T. ) ;
#240 = AXIS2_PLACEMENT_3D ( 'NONE', #404, #218, #223 ) ;
#241 = ORIENTED_EDGE ( 'NONE', *, *, #74, .T. ) ;
#242 = PRODUCT_DEFINITION_FORMATION_WITH_SPECIFIED_SOURCE ( 'ANY', '', #5, .NOT_KNOWN. ) ;
#243 = CARTESIAN_POINT ( 'NONE',  ( -9.000000000000000000, 1.102182119232617714E-15, 35.00000000000000000 ) ) ;
#244 = CC_DESIGN_PERSON_AND_ORGANIZATION_ASSIGNMENT ( #88, #213, ( #5 ) ) ;
#245 = DIRECTION ( 'NONE',  ( 0.000000000000000000, 0.000000000000000000, 1.000000000000000000 ) ) ;
#246 = VERTEX_POINT ( 'NONE', #208 ) ;
#247 = LINE ( 'NONE', #220, #352 ) ;
#248 = DIRECTION ( 'NONE',  ( 0.000000000000000000, 0.000000000000000000, 1.000000000000000000 ) ) ;
#249 = APPLICATION_PROTOCOL_DEFINITION ( 'international standard', 'config_control_design', 1994, #280 ) ;
#250 = EDGE_CURVE ( 'NONE', #62, #59, #42, .T. ) ;
#251 = DIRECTION ( 'NONE',  ( 0.000000000000000000, 0.000000000000000000, 1.000000000000000000 ) ) ;
#252 = ORIENTED_EDGE ( 'NONE', *, *, #402, .F. ) ;
#253 = DIRECTION ( 'NONE',  ( 0.000000000000000000, 0.000000000000000000, 1.000000000000000000 ) ) ;
#254 = CALENDAR_DATE ( 2021, 25, 10 ) ;
#255 = COORDINATED_UNIVERSAL_TIME_OFFSET ( 9, 0, .AHEAD. ) ;
#256 = CARTESIAN_POINT ( 'NONE',  ( 9.000000000000000000, 0.000000000000000000, 24.00000000000000000 ) ) ;
#257 = CARTESIAN_POINT ( 'NONE',  ( 15.00000000000000000, 0.000000000000000000, 18.00000000000000000 ) ) ;
#258 = AXIS2_PLACEMENT_3D ( 'NONE', #79, #11, #266 ) ;
#259 = APPROVAL_DATE_TIME ( #69, #271 ) ;
#260 = VERTEX_POINT ( 'NONE', #323 ) ;
#261 = EDGE_CURVE ( 'NONE', #348, #246, #138, .T. ) ;
#262 = CIRCLE ( 'NONE', #342, 9.000000000000000000 ) ;
#263 = VECTOR ( 'NONE', #77, 1000.000000000000000 ) ;
#264 = EDGE_CURVE ( 'NONE', #151, #363, #204, .T. ) ;
#265 = ORIENTED_EDGE ( 'NONE', *, *, #192, .F. ) ;
#266 = DIRECTION ( 'NONE',  ( 1.000000000000000000, 0.000000000000000000, 0.000000000000000000 ) ) ;
#267 = CARTESIAN_POINT ( 'NONE',  ( 0.000000000000000000, 0.000000000000000000, 18.00000000000000000 ) ) ;
#268 = ORIENTED_EDGE ( 'NONE', *, *, #264, .F. ) ;
#269 = DIRECTION ( 'NONE',  ( 1.000000000000000000, 0.000000000000000000, 0.000000000000000000 ) ) ;
#270 = FACE_BOUND ( 'NONE', #335, .T. ) ;
#271 = APPROVAL ( #187, 'UNSPECIFIED' ) ;
#272 = ORIENTED_EDGE ( 'NONE', *, *, #235, .F. ) ;
#273 = DIRECTION ( 'NONE',  ( 0.000000000000000000, 0.000000000000000000, 1.000000000000000000 ) ) ;
#274 = DIRECTION ( 'NONE',  ( 0.000000000000000000, 0.000000000000000000, 1.000000000000000000 ) ) ;
#275 = VECTOR ( 'NONE', #178, 1000.000000000000000 ) ;
#276 = EDGE_LOOP ( 'NONE', ( #73, #134, #119, #143 ) ) ;
#277 = APPROVAL ( #24, 'UNSPECIFIED' ) ;
#278 = CARTESIAN_POINT ( 'NONE',  ( 5.500000000000000000, 0.000000000000000000, -12.00000000000000000 ) ) ;
#279 = SHAPE_DEFINITION_REPRESENTATION ( #408, #115 ) ;
#280 = APPLICATION_CONTEXT ( 'configuration controlled 3d designs of mechanical parts and assemblies' ) ;
#281 = AXIS2_PLACEMENT_3D ( 'NONE', #180, #54, #147 ) ;
#282 = CC_DESIGN_APPROVAL ( #271, ( #146 ) ) ;
#283 = ADVANCED_FACE ( 'NONE', ( #237, #296 ), #112, .F. ) ;
#284 = PERSON_AND_ORGANIZATION_ROLE ( 'creator' ) ;
#285 = CARTESIAN_POINT ( 'NONE',  ( -5.500000000000000000, 6.735557395310442023E-16, 24.00000000000000000 ) ) ;
#286 = DIRECTION ( 'NONE',  ( 0.000000000000000000, 0.000000000000000000, 1.000000000000000000 ) ) ;
#287 = PERSON_AND_ORGANIZATION_ROLE ( 'design_supplier' ) ;
#288 = VECTOR ( 'NONE', #174, 1000.000000000000000 ) ;
#289 = DATE_AND_TIME ( #100, #294 ) ;
#290 = ORIENTED_EDGE ( 'NONE', *, *, #261, .T. ) ;
#291 = LINE ( 'NONE', #299, #275 ) ;
#292 = CIRCLE ( 'NONE', #162, 15.00000000000000000 ) ;
#293 = AXIS2_PLACEMENT_3D ( 'NONE', #169, #273, #58 ) ;
#294 = LOCAL_TIME ( 8, 52, 31.00000000000000000, #233 ) ;
#295 = CARTESIAN_POINT ( 'NONE',  ( 9.000000000000000000, 0.000000000000000000, 35.00000000000000000 ) ) ;
#296 = FACE_BOUND ( 'NONE', #359, .T. ) ;
#297 = ORIENTED_EDGE ( 'NONE', *, *, #261, .F. ) ;
#298 = CARTESIAN_POINT ( 'NONE',  ( 10.00000000000000000, 0.000000000000000000, 0.000000000000000000 ) ) ;
#299 = CARTESIAN_POINT ( 'NONE',  ( -10.00000000000000000, 1.224646799147353256E-15, 18.00000000000000000 ) ) ;
#300 = DIRECTION ( 'NONE',  ( 1.000000000000000000, 0.000000000000000000, 0.000000000000000000 ) ) ;
#301 = EDGE_CURVE ( 'NONE', #260, #3, #136, .T. ) ;
#302 = DIRECTION ( 'NONE',  ( 0.000000000000000000, 0.000000000000000000, 1.000000000000000000 ) ) ;
#303 = APPLICATION_CONTEXT ( 'configuration controlled 3d designs of mechanical parts and assemblies' ) ;
#304 = DIRECTION ( 'NONE',  ( 0.000000000000000000, 0.000000000000000000, 1.000000000000000000 ) ) ;
#305 = DIRECTION ( 'NONE',  ( 0.000000000000000000, 0.000000000000000000, 1.000000000000000000 ) ) ;
#306 = EDGE_LOOP ( 'NONE', ( #309, #26, #225, #175 ) ) ;
#307 = CIRCLE ( 'NONE', #171, 10.00000000000000000 ) ;
#308 = CARTESIAN_POINT ( 'NONE',  ( 0.000000000000000000, 0.000000000000000000, 24.00000000000000000 ) ) ;
#309 = ORIENTED_EDGE ( 'NONE', *, *, #337, .F. ) ;
#310 = CARTESIAN_POINT ( 'NONE',  ( -10.00000000000000000, 1.224646799147353256E-15, -12.00000000000000000 ) ) ;
#311 = PERSON_AND_ORGANIZATION_ROLE ( 'creator' ) ;
#312 = DESIGN_CONTEXT ( 'detailed design', #303, 'design' ) ;
#313 = DIRECTION ( 'NONE',  ( 1.000000000000000000, 0.000000000000000000, 0.000000000000000000 ) ) ;
#314 = COORDINATED_UNIVERSAL_TIME_OFFSET ( 9, 0, .AHEAD. ) ;
#315 = DATE_TIME_ROLE ( 'creation_date' ) ;
#316 = AXIS2_PLACEMENT_3D ( 'NONE', #267, #358, #109 ) ;
#317 = EDGE_LOOP ( 'NONE', ( #16, #290, #216, #194 ) ) ;
#318 = LOCAL_TIME ( 8, 52, 31.00000000000000000, #41 ) ;
#319 = PRODUCT_DEFINITION ( 'UNKNOWN', '', #242, #312 ) ;
#320 = ORIENTED_EDGE ( 'NONE', *, *, #184, .T. ) ;
#321 = CARTESIAN_POINT ( 'NONE',  ( 9.000000000000000000, 0.000000000000000000, 18.00000000000000000 ) ) ;
#322 = ORIENTED_EDGE ( 'NONE', *, *, #51, .T. ) ;
#323 = CARTESIAN_POINT ( 'NONE',  ( -5.500000000000000000, 6.735557395310442023E-16, -12.00000000000000000 ) ) ;
#324 = DIRECTION ( 'NONE',  ( 1.000000000000000000, 0.000000000000000000, 0.000000000000000000 ) ) ;
#325 = CC_DESIGN_PERSON_AND_ORGANIZATION_ASSIGNMENT ( #7, #284, ( #242 ) ) ;
#326 = CIRCLE ( 'NONE', #240, 10.00000000000000000 ) ;
#327 = AXIS2_PLACEMENT_3D ( 'NONE', #403, #222, #373 ) ;
#328 = DIRECTION ( 'NONE',  ( 0.000000000000000000, 0.000000000000000000, 1.000000000000000000 ) ) ;
#329 = CARTESIAN_POINT ( 'NONE',  ( 0.000000000000000000, 0.000000000000000000, 18.00000000000000000 ) ) ;
#330 = VERTEX_POINT ( 'NONE', #200 ) ;
#331 = DIRECTION ( 'NONE',  ( 0.000000000000000000, 0.000000000000000000, 1.000000000000000000 ) ) ;
#332 = ORIENTED_EDGE ( 'NONE', *, *, #232, .F. ) ;
#333 = CARTESIAN_POINT ( 'NONE',  ( 9.000000000000000000, 0.000000000000000000, 24.00000000000000000 ) ) ;
#334 = CIRCLE ( 'NONE', #29, 15.00000000000000000 ) ;
#335 = EDGE_LOOP ( 'NONE', ( #252, #199 ) ) ;
#336 = AXIS2_PLACEMENT_3D ( 'NONE', #298, #179, #18 ) ;
#337 = EDGE_CURVE ( 'NONE', #260, #221, #90, .T. ) ;
#338 = FACE_OUTER_BOUND ( 'NONE', #14, .T. ) ;
#339 = ORIENTED_EDGE ( 'NONE', *, *, #154, .F. ) ;
#340 =( NAMED_UNIT ( * ) SI_UNIT ( $, .STERADIAN. ) SOLID_ANGLE_UNIT ( ) );
#341 = DIRECTION ( 'NONE',  ( 1.000000000000000000, 0.000000000000000000, 0.000000000000000000 ) ) ;
#342 = AXIS2_PLACEMENT_3D ( 'NONE', #160, #304, #313 ) ;
#343 = CARTESIAN_POINT ( 'NONE',  ( -15.00000000000000000, 1.836970198721029589E-15, 35.00000000000000000 ) ) ;
#344 = AXIS2_PLACEMENT_3D ( 'NONE', #48, #85, #82 ) ;
#345 = CC_DESIGN_PERSON_AND_ORGANIZATION_ASSIGNMENT ( #72, #104, ( #146 ) ) ;
#346 = PERSON_AND_ORGANIZATION ( #392, #12 ) ;
#347 =( GEOMETRIC_REPRESENTATION_CONTEXT ( 3 ) GLOBAL_UNCERTAINTY_ASSIGNED_CONTEXT ( ( #374 ) ) GLOBAL_UNIT_ASSIGNED_CONTEXT ( ( #157, #66, #340 ) ) REPRESENTATION_CONTEXT ( 'NONE', 'WORKASPACE' ) );
#348 = VERTEX_POINT ( 'NONE', #310 ) ;
#349 = ORIENTED_EDGE ( 'NONE', *, *, #399, .T. ) ;
#350 = DATE_AND_TIME ( #254, #106 ) ;
#351 = DATE_TIME_ROLE ( 'classification_date' ) ;
#352 = VECTOR ( 'NONE', #274, 1000.000000000000000 ) ;
#353 = AXIS2_PLACEMENT_3D ( 'NONE', #30, #226, #300 ) ;
#354 = EDGE_LOOP ( 'NONE', ( #135, #339 ) ) ;
#355 = CARTESIAN_POINT ( 'NONE',  ( -5.500000000000000000, 6.735557395310442023E-16, 18.00000000000000000 ) ) ;
#356 = CYLINDRICAL_SURFACE ( 'NONE', #258, 9.000000000000000000 ) ;
#357 = EDGE_LOOP ( 'NONE', ( #332, #98 ) ) ;
#358 = DIRECTION ( 'NONE',  ( 0.000000000000000000, 0.000000000000000000, 1.000000000000000000 ) ) ;
#359 = EDGE_LOOP ( 'NONE', ( #377, #189 ) ) ;
#360 = CARTESIAN_POINT ( 'NONE',  ( -9.000000000000000000, 1.102182119232617714E-15, 18.00000000000000000 ) ) ;
#361 = DIRECTION ( 'NONE',  ( 1.000000000000000000, 0.000000000000000000, 0.000000000000000000 ) ) ;
#362 = VECTOR ( 'NONE', #328, 1000.000000000000000 ) ;
#363 = VERTEX_POINT ( 'NONE', #343 ) ;
#364 = CARTESIAN_POINT ( 'NONE',  ( 0.000000000000000000, 0.000000000000000000, 24.00000000000000000 ) ) ;
#365 = DIRECTION ( 'NONE',  ( 0.000000000000000000, 0.000000000000000000, 1.000000000000000000 ) ) ;
#366 = CYLINDRICAL_SURFACE ( 'NONE', #68, 9.000000000000000000 ) ;
#367 = ORIENTED_EDGE ( 'NONE', *, *, #4, .F. ) ;
#368 = CYLINDRICAL_SURFACE ( 'NONE', #230, 10.00000000000000000 ) ;
#369 = CC_DESIGN_APPROVAL ( #1, ( #242 ) ) ;
#370 = PERSON_AND_ORGANIZATION ( #392, #12 ) ;
#371 = DIRECTION ( 'NONE',  ( 1.000000000000000000, 0.000000000000000000, 0.000000000000000000 ) ) ;
#372 = EDGE_LOOP ( 'NONE', ( #272, #297 ) ) ;
#373 = DIRECTION ( 'NONE',  ( -1.000000000000000000, 0.000000000000000000, 0.000000000000000000 ) ) ;
#374 = UNCERTAINTY_MEASURE_WITH_UNIT (LENGTH_MEASURE( 1.000000000000000082E-05 ), #157, 'distance_accuracy_value', 'NONE');
#375 = FACE_OUTER_BOUND ( 'NONE', #91, .T. ) ;
#376 = DIRECTION ( 'NONE',  ( 0.000000000000000000, 0.000000000000000000, 1.000000000000000000 ) ) ;
#377 = ORIENTED_EDGE ( 'NONE', *, *, #87, .T. ) ;
#378 = AXIS2_PLACEMENT_3D ( 'NONE', #202, #365, #45 ) ;
#379 = LOCAL_TIME ( 8, 52, 31.00000000000000000, #314 ) ;
#380 = FACE_OUTER_BOUND ( 'NONE', #306, .T. ) ;
#381 = ADVANCED_FACE ( 'NONE', ( #95, #338 ), #406, .F. ) ;
#382 = APPROVAL_DATE_TIME ( #193, #277 ) ;
#383 = PERSON_AND_ORGANIZATION ( #392, #12 ) ;
#384 = AXIS2_PLACEMENT_3D ( 'NONE', #99, #67, #227 ) ;
#385 = CALENDAR_DATE ( 2021, 25, 10 ) ;
#386 = DATE_AND_TIME ( #385, #379 ) ;
#387 = AXIS2_PLACEMENT_3D ( 'NONE', #185, #376, #158 ) ;
#388 = AXIS2_PLACEMENT_3D ( 'NONE', #186, #63, #27 ) ;
#389 = DIRECTION ( 'NONE',  ( 0.000000000000000000, 0.000000000000000000, 1.000000000000000000 ) ) ;
#390 = CARTESIAN_POINT ( 'NONE',  ( -15.00000000000000000, 1.836970198721029589E-15, 0.000000000000000000 ) ) ;
#391 = FACE_OUTER_BOUND ( 'NONE', #212, .T. ) ;
#392 = PERSON ( 'UNSPECIFIED', 'UNSPECIFIED', 'UNSPECIFIED', ('UNSPECIFIED'), ('UNSPECIFIED'), ('UNSPECIFIED') ) ;
#393 = VERTEX_POINT ( 'NONE', #126 ) ;
#394 = AXIS2_PLACEMENT_3D ( 'NONE', #145, #245, #206 ) ;
#395 = DIRECTION ( 'NONE',  ( 0.000000000000000000, 0.000000000000000000, -1.000000000000000000 ) ) ;
#396 = ADVANCED_FACE ( 'NONE', ( #150 ), #32, .T. ) ;
#397 = VERTEX_POINT ( 'NONE', #128 ) ;
#398 = DIRECTION ( 'NONE',  ( 0.000000000000000000, 0.000000000000000000, 1.000000000000000000 ) ) ;
#399 = EDGE_CURVE ( 'NONE', #397, #151, #70, .T. ) ;
#400 = CARTESIAN_POINT ( 'NONE',  ( 0.000000000000000000, 0.000000000000000000, 18.00000000000000000 ) ) ;
#401 = CC_DESIGN_SECURITY_CLASSIFICATION ( #146, ( #242 ) ) ;
#402 = EDGE_CURVE ( 'NONE', #137, #3, #123, .T. ) ;
#403 = CARTESIAN_POINT ( 'NONE',  ( 15.00000000000000000, 0.000000000000000000, 35.00000000000000000 ) ) ;
#404 = CARTESIAN_POINT ( 'NONE',  ( 0.000000000000000000, 0.000000000000000000, 0.000000000000000000 ) ) ;
#405 = EDGE_LOOP ( 'NONE', ( #349, #38, #265, #367 ) ) ;
#406 = PLANE ( 'NONE',  #327 ) ;
#407 = FACE_OUTER_BOUND ( 'NONE', #372, .T. ) ;
#408 = PRODUCT_DEFINITION_SHAPE ( 'NONE', 'NONE',  #319 ) ;
#409 = APPROVAL_DATE_TIME ( #350, #1 ) ;
ENDSEC;
END-ISO-10303-21;
