ISO-10303-21;
HEADER;
FILE_DESCRIPTION (( 'STEP AP203' ),
    '1' );
FILE_NAME ('bj720-14001.STEP',
    '2021-10-24T23:59:15',
    ( '' ),
    ( '' ),
    'SwSTEP 2.0',
    'SolidWorks 2020',
    '' );
FILE_SCHEMA (( 'CONFIG_CONTROL_DESIGN' ));
ENDSEC;

DATA;
#1 = AXIS2_PLACEMENT_3D ( 'NONE', #192, #301, #166 ) ;
#2 = LINE ( 'NONE', #4, #181 ) ;
#3 = ORIENTED_EDGE ( 'NONE', *, *, #246, .F. ) ;
#4 = CARTESIAN_POINT ( 'NONE',  ( -2.500000000000000000, 3.061616997868383141E-16, 50.00000000000000000 ) ) ;
#5 = EDGE_LOOP ( 'NONE', ( #313, #142, #302, #329 ) ) ;
#6 = CARTESIAN_POINT ( 'NONE',  ( 0.000000000000000000, 0.000000000000000000, 28.00000000000000000 ) ) ;
#7 = ORIENTED_EDGE ( 'NONE', *, *, #216, .T. ) ;
#8 = UNCERTAINTY_MEASURE_WITH_UNIT (LENGTH_MEASURE( 1.000000000000000082E-05 ), #326, 'distance_accuracy_value', 'NONE');
#9 = CARTESIAN_POINT ( 'NONE',  ( -4.690598923241479312, 0.000000000000000000, 38.00000000000000000 ) ) ;
#10 = COORDINATED_UNIVERSAL_TIME_OFFSET ( 9, 0, .AHEAD. ) ;
#11 = APPROVAL ( #154, 'UNSPECIFIED' ) ;
#12 = APPROVAL_STATUS ( 'not_yet_approved' ) ;
#13 = LOCAL_TIME ( 8, 59, 15.00000000000000000, #205 ) ;
#14 = APPROVAL_STATUS ( 'not_yet_approved' ) ;
#15 = APPROVAL_DATE_TIME ( #311, #11 ) ;
#16 = EDGE_CURVE ( 'NONE', #304, #115, #188, .T. ) ;
#17 = AXIS2_PLACEMENT_3D ( 'NONE', #345, #98, #210 ) ;
#18 = FACE_BOUND ( 'NONE', #242, .T. ) ;
#19 = PERSON_AND_ORGANIZATION_ROLE ( 'design_supplier' ) ;
#20 = AXIS2_PLACEMENT_3D ( 'NONE', #150, #233, #138 ) ;
#21 = EDGE_CURVE ( 'NONE', #169, #115, #73, .T. ) ;
#22 = DIRECTION ( 'NONE',  ( 0.000000000000000000, 0.000000000000000000, 1.000000000000000000 ) ) ;
#23 = AXIS2_PLACEMENT_3D ( 'NONE', #6, #227, #202 ) ;
#24 = AXIS2_PLACEMENT_3D ( 'NONE', #180, #263, #105 ) ;
#25 = LINE ( 'NONE', #108, #79 ) ;
#26 = FACE_OUTER_BOUND ( 'NONE', #84, .T. ) ;
#27 = ORIENTED_EDGE ( 'NONE', *, *, #232, .T. ) ;
#28 = EDGE_LOOP ( 'NONE', ( #249, #7, #177, #221 ) ) ;
#29 = ORIENTED_EDGE ( 'NONE', *, *, #120, .F. ) ;
#30 = AXIS2_PLACEMENT_3D ( 'NONE', #101, #131, #213 ) ;
#31 = ORIENTED_EDGE ( 'NONE', *, *, #16, .T. ) ;
#32 = VERTEX_POINT ( 'NONE', #130 ) ;
#33 = AXIS2_PLACEMENT_3D ( 'NONE', #316, #97, #47 ) ;
#34 = ADVANCED_FACE ( 'NONE', ( #183 ), #186, .F. ) ;
#35 = DATE_AND_TIME ( #309, #72 ) ;
#36 = DIRECTION ( 'NONE',  ( 1.000000000000000000, 0.000000000000000000, 0.000000000000000000 ) ) ;
#37 = DATE_AND_TIME ( #175, #220 ) ;
#38 = FACE_OUTER_BOUND ( 'NONE', #111, .T. ) ;
#39 = CONICAL_SURFACE ( 'NONE', #24, 7.000000000000000000, 0.5235987755982992597 ) ;
#40 = DATE_TIME_ROLE ( 'classification_date' ) ;
#41 = DATE_AND_TIME ( #231, #294 ) ;
#42 = CARTESIAN_POINT ( 'NONE',  ( 7.000000000000000000, 0.000000000000000000, 2.000000000000000000 ) ) ;
#43 = AXIS2_PLACEMENT_3D ( 'NONE', #330, #74, #352 ) ;
#44 = CARTESIAN_POINT ( 'NONE',  ( 0.000000000000000000, 0.000000000000000000, 50.00000000000000000 ) ) ;
#45 = DIRECTION ( 'NONE',  ( 0.000000000000000000, 0.000000000000000000, 1.000000000000000000 ) ) ;
#46 = CYLINDRICAL_SURFACE ( 'NONE', #30, 7.000000000000000000 ) ;
#47 = DIRECTION ( 'NONE',  ( 1.000000000000000000, 0.000000000000000000, 0.000000000000000000 ) ) ;
#48 = ORIENTED_EDGE ( 'NONE', *, *, #134, .T. ) ;
#49 = AXIS2_PLACEMENT_3D ( 'NONE', #295, #22, #237 ) ;
#50 = CC_DESIGN_PERSON_AND_ORGANIZATION_ASSIGNMENT ( #179, #314, ( #264 ) ) ;
#51 = DIRECTION ( 'NONE',  ( 0.000000000000000000, 0.000000000000000000, 1.000000000000000000 ) ) ;
#52 = ORIENTED_EDGE ( 'NONE', *, *, #120, .T. ) ;
#53 = CARTESIAN_POINT ( 'NONE',  ( -2.500000000000000000, 3.061616997868383141E-16, 28.00000000000000000 ) ) ;
#54 = ORIENTED_EDGE ( 'NONE', *, *, #262, .T. ) ;
#55 = EDGE_CURVE ( 'NONE', #277, #304, #76, .T. ) ;
#56 = CC_DESIGN_APPROVAL ( #99, ( #124 ) ) ;
#57 = ADVANCED_FACE ( 'NONE', ( #350 ), #92, .T. ) ;
#58 = EDGE_LOOP ( 'NONE', ( #93, #52, #48, #332 ) ) ;
#59 = APPLICATION_PROTOCOL_DEFINITION ( 'international standard', 'config_control_design', 1994, #144 ) ;
#60 = DIRECTION ( 'NONE',  ( 0.5000000000000003331, 0.000000000000000000, 0.8660254037844383745 ) ) ;
#61 = EDGE_CURVE ( 'NONE', #115, #304, #129, .T. ) ;
#62 = ORIENTED_EDGE ( 'NONE', *, *, #86, .F. ) ;
#63 = PERSON_AND_ORGANIZATION ( #306, #300 ) ;
#64 = CIRCLE ( 'NONE', #224, 5.845299461620750314 ) ;
#65 = MANIFOLD_SOLID_BREP ( 'Imported1', #66 ) ;
#66 = CLOSED_SHELL ( 'NONE', ( #226, #171, #195, #71, #241, #268, #317, #57, #162, #34, #107 ) ) ;
#67 = EDGE_LOOP ( 'NONE', ( #170, #161, #256, #68 ) ) ;
#68 = ORIENTED_EDGE ( 'NONE', *, *, #61, .T. ) ;
#69 = LINE ( 'NONE', #184, #319 ) ;
#70 = CC_DESIGN_DATE_AND_TIME_ASSIGNMENT ( #41, #40, ( #89 ) ) ;
#71 = ADVANCED_FACE ( 'NONE', ( #125 ), #173, .T. ) ;
#72 = LOCAL_TIME ( 8, 59, 15.00000000000000000, #289 ) ;
#73 = LINE ( 'NONE', #123, #149 ) ;
#74 = DIRECTION ( 'NONE',  ( 0.000000000000000000, 0.000000000000000000, 1.000000000000000000 ) ) ;
#75 = ORIENTED_EDGE ( 'NONE', *, *, #342, .T. ) ;
#76 = LINE ( 'NONE', #160, #347 ) ;
#77 = EDGE_CURVE ( 'NONE', #286, #182, #325, .T. ) ;
#78 = CYLINDRICAL_SURFACE ( 'NONE', #198, 7.000000000000000000 ) ;
#79 = VECTOR ( 'NONE', #133, 1000.000000000000000 ) ;
#80 = FACE_OUTER_BOUND ( 'NONE', #58, .T. ) ;
#81 = VERTEX_POINT ( 'NONE', #355 ) ;
#82 = ORIENTED_EDGE ( 'NONE', *, *, #77, .T. ) ;
#83 = VERTEX_POINT ( 'NONE', #53 ) ;
#84 = EDGE_LOOP ( 'NONE', ( #3, #29 ) ) ;
#85 = ORIENTED_EDGE ( 'NONE', *, *, #201, .T. ) ;
#86 = EDGE_CURVE ( 'NONE', #200, #32, #168, .T. ) ;
#87 = CARTESIAN_POINT ( 'NONE',  ( 7.000000000000000000, 0.000000000000000000, 34.00000000000000000 ) ) ;
#88 = CALENDAR_DATE ( 2021, 25, 10 ) ;
#89 = SECURITY_CLASSIFICATION ( '', '', #176 ) ;
#90 = APPROVAL_DATE_TIME ( #35, #223 ) ;
#91 = APPLICATION_CONTEXT ( 'configuration controlled 3d designs of mechanical parts and assemblies' ) ;
#92 = CONICAL_SURFACE ( 'NONE', #234, 7.000000000000000000, 0.5235987755982992597 ) ;
#93 = ORIENTED_EDGE ( 'NONE', *, *, #216, .F. ) ;
#94 = EDGE_CURVE ( 'NONE', #83, #200, #139, .T. ) ;
#95 = CALENDAR_DATE ( 2021, 25, 10 ) ;
#96 = DIRECTION ( 'NONE',  ( 1.000000000000000000, 0.000000000000000000, 0.000000000000000000 ) ) ;
#97 = DIRECTION ( 'NONE',  ( 0.000000000000000000, 0.000000000000000000, 1.000000000000000000 ) ) ;
#98 = DIRECTION ( 'NONE',  ( 0.000000000000000000, 0.000000000000000000, 1.000000000000000000 ) ) ;
#99 = APPROVAL ( #14, 'UNSPECIFIED' ) ;
#100 = DIRECTION ( 'NONE',  ( 0.000000000000000000, 0.000000000000000000, -1.000000000000000000 ) ) ;
#101 = CARTESIAN_POINT ( 'NONE',  ( 0.000000000000000000, 0.000000000000000000, 50.00000000000000000 ) ) ;
#102 = DIRECTION ( 'NONE',  ( 1.000000000000000000, 0.000000000000000000, 0.000000000000000000 ) ) ;
#103 = AXIS2_PLACEMENT_3D ( 'NONE', #327, #283, #96 ) ;
#104 = PLANE ( 'NONE',  #163 ) ;
#105 = DIRECTION ( 'NONE',  ( -1.000000000000000000, 0.000000000000000000, 0.000000000000000000 ) ) ;
#106 = CARTESIAN_POINT ( 'NONE',  ( 2.500000000000000000, 0.000000000000000000, 28.00000000000000000 ) ) ;
#107 = ADVANCED_FACE ( 'NONE', ( #279 ), #236, .T. ) ;
#108 = CARTESIAN_POINT ( 'NONE',  ( -7.000000000000000000, 8.572527594031473190E-16, 50.00000000000000000 ) ) ;
#109 = CYLINDRICAL_SURFACE ( 'NONE', #308, 2.500000000000000000 ) ;
#110 = ORIENTED_EDGE ( 'NONE', *, *, #292, .F. ) ;
#111 = EDGE_LOOP ( 'NONE', ( #212, #219, #31, #203 ) ) ;
#112 = EDGE_LOOP ( 'NONE', ( #121, #141, #75, #62 ) ) ;
#113 = AXIS2_PLACEMENT_3D ( 'NONE', #323, #239, #126 ) ;
#114 = CONICAL_SURFACE ( 'NONE', #1, 7.000000000000000000, 0.5235987755982992597 ) ;
#115 = VERTEX_POINT ( 'NONE', #214 ) ;
#116 = PERSON_AND_ORGANIZATION ( #306, #300 ) ;
#117 = PERSON_AND_ORGANIZATION_ROLE ( 'creator' ) ;
#118 = CIRCLE ( 'NONE', #207, 4.690598923241479312 ) ;
#119 = CC_DESIGN_PERSON_AND_ORGANIZATION_ASSIGNMENT ( #148, #117, ( #331 ) ) ;
#120 = EDGE_CURVE ( 'NONE', #315, #81, #64, .T. ) ;
#121 = ORIENTED_EDGE ( 'NONE', *, *, #94, .F. ) ;
#122 = PERSON_AND_ORGANIZATION ( #306, #300 ) ;
#123 = CARTESIAN_POINT ( 'NONE',  ( -7.000000000000000000, 0.000000000000000000, 34.00000000000000000 ) ) ;
#124 = PRODUCT_DEFINITION_FORMATION_WITH_SPECIFIED_SOURCE ( 'ANY', '', #264, .NOT_KNOWN. ) ;
#125 = FACE_OUTER_BOUND ( 'NONE', #28, .T. ) ;
#126 = DIRECTION ( 'NONE',  ( 1.000000000000000000, 0.000000000000000000, 0.000000000000000000 ) ) ;
#127 = DIRECTION ( 'NONE',  ( 1.000000000000000000, 0.000000000000000000, 0.000000000000000000 ) ) ;
#128 = LINE ( 'NONE', #269, #280 ) ;
#129 = CIRCLE ( 'NONE', #278, 7.000000000000000000 ) ;
#130 = CARTESIAN_POINT ( 'NONE',  ( 2.500000000000000000, 0.000000000000000000, 38.00000000000000000 ) ) ;
#131 = DIRECTION ( 'NONE',  ( 0.000000000000000000, 0.000000000000000000, 1.000000000000000000 ) ) ;
#132 = AXIS2_PLACEMENT_3D ( 'NONE', #199, #275, #172 ) ;
#133 = DIRECTION ( 'NONE',  ( 0.000000000000000000, 0.000000000000000000, 1.000000000000000000 ) ) ;
#134 = EDGE_CURVE ( 'NONE', #81, #286, #272, .T. ) ;
#135 = EDGE_CURVE ( 'NONE', #182, #286, #235, .T. ) ;
#136 = DIRECTION ( 'NONE',  ( 0.000000000000000000, 0.000000000000000000, 1.000000000000000000 ) ) ;
#137 = DIRECTION ( 'NONE',  ( -0.5000000000000003331, 6.123233995736769734E-17, 0.8660254037844383745 ) ) ;
#138 = DIRECTION ( 'NONE',  ( 1.000000000000000000, 0.000000000000000000, 0.000000000000000000 ) ) ;
#139 = CIRCLE ( 'NONE', #23, 2.500000000000000000 ) ;
#140 = VERTEX_POINT ( 'NONE', #254 ) ;
#141 = ORIENTED_EDGE ( 'NONE', *, *, #346, .T. ) ;
#142 = ORIENTED_EDGE ( 'NONE', *, *, #135, .T. ) ;
#143 = AXIS2_PLACEMENT_3D ( 'NONE', #282, #252, #36 ) ;
#144 = APPLICATION_CONTEXT ( 'configuration controlled 3d designs of mechanical parts and assemblies' ) ;
#145 = PERSON_AND_ORGANIZATION ( #306, #300 ) ;
#146 = ADVANCED_BREP_SHAPE_REPRESENTATION ( 'bj720-14001', ( #65, #143 ), #190 ) ;
#147 = ORIENTED_EDGE ( 'NONE', *, *, #86, .T. ) ;
#148 = PERSON_AND_ORGANIZATION ( #306, #300 ) ;
#149 = VECTOR ( 'NONE', #348, 1000.000000000000114 ) ;
#150 = CARTESIAN_POINT ( 'NONE',  ( 0.000000000000000000, 0.000000000000000000, 38.00000000000000000 ) ) ;
#151 = DIRECTION ( 'NONE',  ( 1.000000000000000000, 0.000000000000000000, 0.000000000000000000 ) ) ;
#152 = SHAPE_DEFINITION_REPRESENTATION ( #197, #146 ) ;
#153 = LOCAL_TIME ( 8, 59, 15.00000000000000000, #258 ) ;
#154 = APPROVAL_STATUS ( 'not_yet_approved' ) ;
#155 = DIRECTION ( 'NONE',  ( 1.000000000000000000, 0.000000000000000000, 0.000000000000000000 ) ) ;
#156 = CC_DESIGN_PERSON_AND_ORGANIZATION_ASSIGNMENT ( #116, #229, ( #124 ) ) ;
#157 = DIRECTION ( 'NONE',  ( 1.000000000000000000, 0.000000000000000000, 0.000000000000000000 ) ) ;
#158 = CARTESIAN_POINT ( 'NONE',  ( 0.000000000000000000, 0.000000000000000000, 2.000000000000000000 ) ) ;
#159 = AXIS2_PLACEMENT_3D ( 'NONE', #211, #45, #102 ) ;
#160 = CARTESIAN_POINT ( 'NONE',  ( 7.000000000000000000, 8.572527594031473190E-16, 34.00000000000000000 ) ) ;
#161 = ORIENTED_EDGE ( 'NONE', *, *, #201, .F. ) ;
#162 = ADVANCED_FACE ( 'NONE', ( #18, #287 ), #104, .F. ) ;
#163 = AXIS2_PLACEMENT_3D ( 'NONE', #291, #100, #297 ) ;
#164 = DIRECTION ( 'NONE',  ( -1.000000000000000000, 0.000000000000000000, 0.000000000000000000 ) ) ;
#165 = DIRECTION ( 'NONE',  ( 1.000000000000000000, 0.000000000000000000, 0.000000000000000000 ) ) ;
#166 = DIRECTION ( 'NONE',  ( 1.000000000000000000, 0.000000000000000000, 0.000000000000000000 ) ) ;
#167 = CC_DESIGN_PERSON_AND_ORGANIZATION_ASSIGNMENT ( #122, #19, ( #124 ) ) ;
#168 = LINE ( 'NONE', #334, #225 ) ;
#169 = VERTEX_POINT ( 'NONE', #9 ) ;
#170 = ORIENTED_EDGE ( 'NONE', *, *, #55, .F. ) ;
#171 = ADVANCED_FACE ( 'NONE', ( #38 ), #39, .T. ) ;
#172 = DIRECTION ( 'NONE',  ( 1.000000000000000000, 0.000000000000000000, 0.000000000000000000 ) ) ;
#173 = CONICAL_SURFACE ( 'NONE', #17, 7.000000000000000000, 0.5235987755982992597 ) ;
#174 = APPROVAL_PERSON_ORGANIZATION ( #63, #99, #178 ) ;
#175 = CALENDAR_DATE ( 2021, 25, 10 ) ;
#176 = SECURITY_CLASSIFICATION_LEVEL ( 'unclassified' ) ;
#177 = ORIENTED_EDGE ( 'NONE', *, *, #77, .F. ) ;
#178 = APPROVAL_ROLE ( '' ) ;
#179 = PERSON_AND_ORGANIZATION ( #306, #300 ) ;
#180 = CARTESIAN_POINT ( 'NONE',  ( 0.000000000000000000, 0.000000000000000000, 34.00000000000000000 ) ) ;
#181 = VECTOR ( 'NONE', #136, 1000.000000000000000 ) ;
#182 = VERTEX_POINT ( 'NONE', #271 ) ;
#183 = FACE_OUTER_BOUND ( 'NONE', #245, .T. ) ;
#184 = CARTESIAN_POINT ( 'NONE',  ( 7.000000000000000000, 0.000000000000000000, 50.00000000000000000 ) ) ;
#185 = VECTOR ( 'NONE', #60, 1000.000000000000114 ) ;
#186 = CYLINDRICAL_SURFACE ( 'NONE', #33, 2.500000000000000000 ) ;
#187 = CARTESIAN_POINT ( 'NONE',  ( 0.000000000000000000, 0.000000000000000000, 0.000000000000000000 ) ) ;
#188 = CIRCLE ( 'NONE', #113, 7.000000000000000000 ) ;
#189 = CARTESIAN_POINT ( 'NONE',  ( 0.000000000000000000, 0.000000000000000000, 34.00000000000000000 ) ) ;
#190 =( GEOMETRIC_REPRESENTATION_CONTEXT ( 3 ) GLOBAL_UNCERTAINTY_ASSIGNED_CONTEXT ( ( #8 ) ) GLOBAL_UNIT_ASSIGNED_CONTEXT ( ( #326, #191, #247 ) ) REPRESENTATION_CONTEXT ( 'NONE', 'WORKASPACE' ) );
#191 =( NAMED_UNIT ( * ) PLANE_ANGLE_UNIT ( ) SI_UNIT ( $, .RADIAN. ) );
#192 = CARTESIAN_POINT ( 'NONE',  ( 0.000000000000000000, 0.000000000000000000, 2.000000000000000000 ) ) ;
#193 = ORIENTED_EDGE ( 'NONE', *, *, #342, .F. ) ;
#194 = EDGE_LOOP ( 'NONE', ( #222, #196 ) ) ;
#195 = ADVANCED_FACE ( 'NONE', ( #322 ), #46, .T. ) ;
#196 = ORIENTED_EDGE ( 'NONE', *, *, #94, .T. ) ;
#197 = PRODUCT_DEFINITION_SHAPE ( 'NONE', 'NONE',  #331 ) ;
#198 = AXIS2_PLACEMENT_3D ( 'NONE', #44, #51, #321 ) ;
#199 = CARTESIAN_POINT ( 'NONE',  ( 0.000000000000000000, 0.000000000000000000, 38.00000000000000000 ) ) ;
#200 = VERTEX_POINT ( 'NONE', #106 ) ;
#201 = EDGE_CURVE ( 'NONE', #169, #277, #118, .T. ) ;
#202 = DIRECTION ( 'NONE',  ( 1.000000000000000000, 0.000000000000000000, 0.000000000000000000 ) ) ;
#203 = ORIENTED_EDGE ( 'NONE', *, *, #21, .F. ) ;
#204 = EDGE_CURVE ( 'NONE', #286, #304, #69, .T. ) ;
#205 = COORDINATED_UNIVERSAL_TIME_OFFSET ( 9, 0, .AHEAD. ) ;
#206 = PERSON_AND_ORGANIZATION ( #306, #300 ) ;
#207 = AXIS2_PLACEMENT_3D ( 'NONE', #240, #324, #165 ) ;
#208 = COORDINATED_UNIVERSAL_TIME_OFFSET ( 9, 0, .AHEAD. ) ;
#209 = CARTESIAN_POINT ( 'NONE',  ( 0.000000000000000000, 0.000000000000000000, 34.00000000000000000 ) ) ;
#210 = DIRECTION ( 'NONE',  ( 1.000000000000000000, 0.000000000000000000, 0.000000000000000000 ) ) ;
#211 = CARTESIAN_POINT ( 'NONE',  ( 0.000000000000000000, 0.000000000000000000, 28.00000000000000000 ) ) ;
#212 = ORIENTED_EDGE ( 'NONE', *, *, #262, .F. ) ;
#213 = DIRECTION ( 'NONE',  ( 1.000000000000000000, 0.000000000000000000, 0.000000000000000000 ) ) ;
#214 = CARTESIAN_POINT ( 'NONE',  ( -7.000000000000000000, 8.572527594031473190E-16, 34.00000000000000000 ) ) ;
#215 = CC_DESIGN_SECURITY_CLASSIFICATION ( #89, ( #124 ) ) ;
#216 = EDGE_CURVE ( 'NONE', #315, #182, #128, .T. ) ;
#217 = CARTESIAN_POINT ( 'NONE',  ( 0.000000000000000000, 0.000000000000000000, 50.00000000000000000 ) ) ;
#218 = ORIENTED_EDGE ( 'NONE', *, *, #232, .F. ) ;
#219 = ORIENTED_EDGE ( 'NONE', *, *, #55, .T. ) ;
#220 = LOCAL_TIME ( 8, 59, 15.00000000000000000, #10 ) ;
#221 = ORIENTED_EDGE ( 'NONE', *, *, #134, .F. ) ;
#222 = ORIENTED_EDGE ( 'NONE', *, *, #292, .T. ) ;
#223 = APPROVAL ( #12, 'UNSPECIFIED' ) ;
#224 = AXIS2_PLACEMENT_3D ( 'NONE', #276, #339, #155 ) ;
#225 = VECTOR ( 'NONE', #248, 1000.000000000000000 ) ;
#226 = ADVANCED_FACE ( 'NONE', ( #353 ), #109, .F. ) ;
#227 = DIRECTION ( 'NONE',  ( 0.000000000000000000, 0.000000000000000000, 1.000000000000000000 ) ) ;
#228 = DESIGN_CONTEXT ( 'detailed design', #144, 'design' ) ;
#229 = PERSON_AND_ORGANIZATION_ROLE ( 'creator' ) ;
#230 = AXIS2_PLACEMENT_3D ( 'NONE', #187, #298, #266 ) ;
#231 = CALENDAR_DATE ( 2021, 25, 10 ) ;
#232 = EDGE_CURVE ( 'NONE', #32, #140, #267, .T. ) ;
#233 = DIRECTION ( 'NONE',  ( 0.000000000000000000, 0.000000000000000000, 1.000000000000000000 ) ) ;
#234 = AXIS2_PLACEMENT_3D ( 'NONE', #189, #299, #164 ) ;
#235 = CIRCLE ( 'NONE', #349, 7.000000000000000000 ) ;
#236 = PLANE ( 'NONE',  #159 ) ;
#237 = DIRECTION ( 'NONE',  ( 1.000000000000000000, 0.000000000000000000, 0.000000000000000000 ) ) ;
#238 = CC_DESIGN_APPROVAL ( #11, ( #89 ) ) ;
#239 = DIRECTION ( 'NONE',  ( 0.000000000000000000, 0.000000000000000000, 1.000000000000000000 ) ) ;
#240 = CARTESIAN_POINT ( 'NONE',  ( 0.000000000000000000, 0.000000000000000000, 38.00000000000000000 ) ) ;
#241 = ADVANCED_FACE ( 'NONE', ( #26 ), #320, .F. ) ;
#242 = EDGE_LOOP ( 'NONE', ( #218, #193 ) ) ;
#243 = CC_DESIGN_APPROVAL ( #223, ( #331 ) ) ;
#244 = ORIENTED_EDGE ( 'NONE', *, *, #16, .F. ) ;
#245 = EDGE_LOOP ( 'NONE', ( #273, #110, #147, #27 ) ) ;
#246 = EDGE_CURVE ( 'NONE', #81, #315, #285, .T. ) ;
#247 =( NAMED_UNIT ( * ) SI_UNIT ( $, .STERADIAN. ) SOLID_ANGLE_UNIT ( ) );
#248 = DIRECTION ( 'NONE',  ( 0.000000000000000000, 0.000000000000000000, 1.000000000000000000 ) ) ;
#249 = ORIENTED_EDGE ( 'NONE', *, *, #246, .T. ) ;
#250 = CIRCLE ( 'NONE', #20, 2.500000000000000000 ) ;
#251 = EDGE_CURVE ( 'NONE', #182, #115, #25, .T. ) ;
#252 = DIRECTION ( 'NONE',  ( 0.000000000000000000, 0.000000000000000000, 1.000000000000000000 ) ) ;
#253 = CIRCLE ( 'NONE', #132, 4.690598923241479312 ) ;
#254 = CARTESIAN_POINT ( 'NONE',  ( -2.500000000000000000, 3.061616997868383141E-16, 38.00000000000000000 ) ) ;
#255 = APPLICATION_PROTOCOL_DEFINITION ( 'international standard', 'config_control_design', 1994, #91 ) ;
#256 = ORIENTED_EDGE ( 'NONE', *, *, #21, .T. ) ;
#257 = APPROVAL_ROLE ( '' ) ;
#258 = COORDINATED_UNIVERSAL_TIME_OFFSET ( 9, 0, .AHEAD. ) ;
#259 = AXIS2_PLACEMENT_3D ( 'NONE', #318, #337, #333 ) ;
#260 = DIRECTION ( 'NONE',  ( 0.000000000000000000, 0.000000000000000000, 1.000000000000000000 ) ) ;
#261 = CC_DESIGN_PERSON_AND_ORGANIZATION_ASSIGNMENT ( #338, #288, ( #89 ) ) ;
#262 = EDGE_CURVE ( 'NONE', #277, #169, #253, .T. ) ;
#263 = DIRECTION ( 'NONE',  ( 0.000000000000000000, 0.000000000000000000, -1.000000000000000000 ) ) ;
#264 = PRODUCT ( 'bj720-14001', 'bj720-14001', '', ( #307 ) ) ;
#265 = DIRECTION ( 'NONE',  ( 0.5000000000000003331, 6.123233995736769734E-17, -0.8660254037844383745 ) ) ;
#266 = DIRECTION ( 'NONE',  ( 1.000000000000000000, 0.000000000000000000, 0.000000000000000000 ) ) ;
#267 = CIRCLE ( 'NONE', #43, 2.500000000000000000 ) ;
#268 = ADVANCED_FACE ( 'NONE', ( #80 ), #114, .T. ) ;
#269 = CARTESIAN_POINT ( 'NONE',  ( -7.000000000000000000, 8.572527594031473190E-16, 2.000000000000000000 ) ) ;
#270 = CARTESIAN_POINT ( 'NONE',  ( -5.845299461620749426, 7.865477434881536397E-16, 0.000000000000000000 ) ) ;
#271 = CARTESIAN_POINT ( 'NONE',  ( -7.000000000000000000, 8.572527594031473190E-16, 2.000000000000000000 ) ) ;
#272 = LINE ( 'NONE', #310, #185 ) ;
#273 = ORIENTED_EDGE ( 'NONE', *, *, #346, .F. ) ;
#274 = APPROVAL_PERSON_ORGANIZATION ( #206, #11, #257 ) ;
#275 = DIRECTION ( 'NONE',  ( 0.000000000000000000, 0.000000000000000000, 1.000000000000000000 ) ) ;
#276 = CARTESIAN_POINT ( 'NONE',  ( 0.000000000000000000, 0.000000000000000000, 0.000000000000000000 ) ) ;
#277 = VERTEX_POINT ( 'NONE', #312 ) ;
#278 = AXIS2_PLACEMENT_3D ( 'NONE', #209, #290, #157 ) ;
#279 = FACE_OUTER_BOUND ( 'NONE', #194, .T. ) ;
#280 = VECTOR ( 'NONE', #137, 1000.000000000000114 ) ;
#281 = DATE_TIME_ROLE ( 'creation_date' ) ;
#282 = CARTESIAN_POINT ( 'NONE',  ( 0.000000000000000000, 0.000000000000000000, 0.000000000000000000 ) ) ;
#283 = DIRECTION ( 'NONE',  ( 0.000000000000000000, 0.000000000000000000, 1.000000000000000000 ) ) ;
#284 = DATE_AND_TIME ( #95, #153 ) ;
#285 = CIRCLE ( 'NONE', #230, 5.845299461620750314 ) ;
#286 = VERTEX_POINT ( 'NONE', #42 ) ;
#287 = FACE_OUTER_BOUND ( 'NONE', #351, .T. ) ;
#288 = PERSON_AND_ORGANIZATION_ROLE ( 'classification_officer' ) ;
#289 = COORDINATED_UNIVERSAL_TIME_OFFSET ( 9, 0, .AHEAD. ) ;
#290 = DIRECTION ( 'NONE',  ( 0.000000000000000000, 0.000000000000000000, 1.000000000000000000 ) ) ;
#291 = CARTESIAN_POINT ( 'NONE',  ( 4.690598923241479312, 0.000000000000000000, 38.00000000000000000 ) ) ;
#292 = EDGE_CURVE ( 'NONE', #200, #83, #336, .T. ) ;
#293 = DIRECTION ( 'NONE',  ( 0.000000000000000000, 0.000000000000000000, 1.000000000000000000 ) ) ;
#294 = LOCAL_TIME ( 8, 59, 15.00000000000000000, #208 ) ;
#295 = CARTESIAN_POINT ( 'NONE',  ( 0.000000000000000000, 0.000000000000000000, 0.000000000000000000 ) ) ;
#296 = DIRECTION ( 'NONE',  ( 0.000000000000000000, 0.000000000000000000, 1.000000000000000000 ) ) ;
#297 = DIRECTION ( 'NONE',  ( -1.000000000000000000, 0.000000000000000000, 0.000000000000000000 ) ) ;
#298 = DIRECTION ( 'NONE',  ( 0.000000000000000000, 0.000000000000000000, 1.000000000000000000 ) ) ;
#299 = DIRECTION ( 'NONE',  ( 0.000000000000000000, 0.000000000000000000, -1.000000000000000000 ) ) ;
#300 = ORGANIZATION ( 'UNSPECIFIED', 'UNSPECIFIED', '' ) ;
#301 = DIRECTION ( 'NONE',  ( 0.000000000000000000, 0.000000000000000000, 1.000000000000000000 ) ) ;
#302 = ORIENTED_EDGE ( 'NONE', *, *, #204, .T. ) ;
#303 = PRODUCT_RELATED_PRODUCT_CATEGORY ( 'detail', '', ( #264 ) ) ;
#304 = VERTEX_POINT ( 'NONE', #87 ) ;
#305 = APPROVAL_PERSON_ORGANIZATION ( #145, #223, #341 ) ;
#306 = PERSON ( 'UNSPECIFIED', 'UNSPECIFIED', 'UNSPECIFIED', ('UNSPECIFIED'), ('UNSPECIFIED'), ('UNSPECIFIED') ) ;
#307 = MECHANICAL_CONTEXT ( 'NONE', #91, 'mechanical' ) ;
#308 = AXIS2_PLACEMENT_3D ( 'NONE', #217, #293, #127 ) ;
#309 = CALENDAR_DATE ( 2021, 25, 10 ) ;
#310 = CARTESIAN_POINT ( 'NONE',  ( 7.000000000000000000, 0.000000000000000000, 2.000000000000000000 ) ) ;
#311 = DATE_AND_TIME ( #88, #13 ) ;
#312 = CARTESIAN_POINT ( 'NONE',  ( 4.690598923241479312, 7.158427275731583827E-16, 38.00000000000000000 ) ) ;
#313 = ORIENTED_EDGE ( 'NONE', *, *, #251, .F. ) ;
#314 = PERSON_AND_ORGANIZATION_ROLE ( 'design_owner' ) ;
#315 = VERTEX_POINT ( 'NONE', #270 ) ;
#316 = CARTESIAN_POINT ( 'NONE',  ( 0.000000000000000000, 0.000000000000000000, 50.00000000000000000 ) ) ;
#317 = ADVANCED_FACE ( 'NONE', ( #354 ), #78, .T. ) ;
#318 = CARTESIAN_POINT ( 'NONE',  ( 0.000000000000000000, 0.000000000000000000, 2.000000000000000000 ) ) ;
#319 = VECTOR ( 'NONE', #296, 1000.000000000000000 ) ;
#320 = PLANE ( 'NONE',  #49 ) ;
#321 = DIRECTION ( 'NONE',  ( 1.000000000000000000, 0.000000000000000000, 0.000000000000000000 ) ) ;
#322 = FACE_OUTER_BOUND ( 'NONE', #340, .T. ) ;
#323 = CARTESIAN_POINT ( 'NONE',  ( 0.000000000000000000, 0.000000000000000000, 34.00000000000000000 ) ) ;
#324 = DIRECTION ( 'NONE',  ( 0.000000000000000000, 0.000000000000000000, 1.000000000000000000 ) ) ;
#325 = CIRCLE ( 'NONE', #259, 7.000000000000000000 ) ;
#326 =( LENGTH_UNIT ( ) NAMED_UNIT ( * ) SI_UNIT ( .MILLI., .METRE. ) );
#327 = CARTESIAN_POINT ( 'NONE',  ( 0.000000000000000000, 0.000000000000000000, 28.00000000000000000 ) ) ;
#328 = ORIENTED_EDGE ( 'NONE', *, *, #251, .T. ) ;
#329 = ORIENTED_EDGE ( 'NONE', *, *, #61, .F. ) ;
#330 = CARTESIAN_POINT ( 'NONE',  ( 0.000000000000000000, 0.000000000000000000, 38.00000000000000000 ) ) ;
#331 = PRODUCT_DEFINITION ( 'UNKNOWN', '', #124, #228 ) ;
#332 = ORIENTED_EDGE ( 'NONE', *, *, #135, .F. ) ;
#333 = DIRECTION ( 'NONE',  ( 1.000000000000000000, 0.000000000000000000, 0.000000000000000000 ) ) ;
#334 = CARTESIAN_POINT ( 'NONE',  ( 2.500000000000000000, 0.000000000000000000, 50.00000000000000000 ) ) ;
#335 = ORIENTED_EDGE ( 'NONE', *, *, #204, .F. ) ;
#336 = CIRCLE ( 'NONE', #103, 2.500000000000000000 ) ;
#337 = DIRECTION ( 'NONE',  ( 0.000000000000000000, 0.000000000000000000, 1.000000000000000000 ) ) ;
#338 = PERSON_AND_ORGANIZATION ( #306, #300 ) ;
#339 = DIRECTION ( 'NONE',  ( 0.000000000000000000, 0.000000000000000000, 1.000000000000000000 ) ) ;
#340 = EDGE_LOOP ( 'NONE', ( #82, #328, #244, #335 ) ) ;
#341 = APPROVAL_ROLE ( '' ) ;
#342 = EDGE_CURVE ( 'NONE', #140, #32, #250, .T. ) ;
#343 = APPROVAL_DATE_TIME ( #37, #99 ) ;
#344 = CC_DESIGN_DATE_AND_TIME_ASSIGNMENT ( #284, #281, ( #331 ) ) ;
#345 = CARTESIAN_POINT ( 'NONE',  ( 0.000000000000000000, 0.000000000000000000, 2.000000000000000000 ) ) ;
#346 = EDGE_CURVE ( 'NONE', #83, #140, #2, .T. ) ;
#347 = VECTOR ( 'NONE', #265, 1000.000000000000114 ) ;
#348 = DIRECTION ( 'NONE',  ( -0.5000000000000003331, 0.000000000000000000, -0.8660254037844383745 ) ) ;
#349 = AXIS2_PLACEMENT_3D ( 'NONE', #158, #260, #151 ) ;
#350 = FACE_OUTER_BOUND ( 'NONE', #67, .T. ) ;
#351 = EDGE_LOOP ( 'NONE', ( #85, #54 ) ) ;
#352 = DIRECTION ( 'NONE',  ( 1.000000000000000000, 0.000000000000000000, 0.000000000000000000 ) ) ;
#353 = FACE_OUTER_BOUND ( 'NONE', #112, .T. ) ;
#354 = FACE_OUTER_BOUND ( 'NONE', #5, .T. ) ;
#355 = CARTESIAN_POINT ( 'NONE',  ( 5.845299461620750314, 0.000000000000000000, 0.000000000000000000 ) ) ;
ENDSEC;
END-ISO-10303-21;
