ISO-10303-21;
HEADER;
FILE_DESCRIPTION (( 'STEP AP203' ),
    '1' );
FILE_NAME ('bj623-10001.STEP',
    '2021-10-24T23:57:25',
    ( '' ),
    ( '' ),
    'SwSTEP 2.0',
    'SolidWorks 2020',
    '' );
FILE_SCHEMA (( 'CONFIG_CONTROL_DESIGN' ));
ENDSEC;

DATA;
#1 = ORIENTED_EDGE ( 'NONE', *, *, #104, .T. ) ;
#2 = EDGE_CURVE ( 'NONE', #17, #234, #188, .T. ) ;
#3 = ORIENTED_EDGE ( 'NONE', *, *, #62, .T. ) ;
#4 = PERSON_AND_ORGANIZATION_ROLE ( 'creator' ) ;
#5 = PERSON_AND_ORGANIZATION ( #192, #199 ) ;
#6 = DIRECTION ( 'NONE',  ( 0.000000000000000000, 0.000000000000000000, 1.000000000000000000 ) ) ;
#7 = CARTESIAN_POINT ( 'NONE',  ( 0.000000000000000000, 0.000000000000000000, 0.000000000000000000 ) ) ;
#8 = AXIS2_PLACEMENT_3D ( 'NONE', #242, #230, #33 ) ;
#9 = ORIENTED_EDGE ( 'NONE', *, *, #201, .T. ) ;
#10 = ADVANCED_BREP_SHAPE_REPRESENTATION ( 'bj623-10001', ( #107, #24 ), #237 ) ;
#11 = CYLINDRICAL_SURFACE ( 'NONE', #138, 5.250000000000000000 ) ;
#12 = CIRCLE ( 'NONE', #66, 15.00000000000000000 ) ;
#13 = PERSON_AND_ORGANIZATION ( #192, #199 ) ;
#14 =( NAMED_UNIT ( * ) PLANE_ANGLE_UNIT ( ) SI_UNIT ( $, .RADIAN. ) );
#15 = SECURITY_CLASSIFICATION ( '', '', #233 ) ;
#16 = COORDINATED_UNIVERSAL_TIME_OFFSET ( 9, 0, .AHEAD. ) ;
#17 = VERTEX_POINT ( 'NONE', #106 ) ;
#18 = VERTEX_POINT ( 'NONE', #129 ) ;
#19 = EDGE_LOOP ( 'NONE', ( #109, #144 ) ) ;
#20 = CALENDAR_DATE ( 2021, 25, 10 ) ;
#21 = PERSON_AND_ORGANIZATION ( #192, #199 ) ;
#22 = CARTESIAN_POINT ( 'NONE',  ( -5.250000000000000000, 0.000000000000000000, 5.000000000000000000 ) ) ;
#23 = AXIS2_PLACEMENT_3D ( 'NONE', #173, #172, #93 ) ;
#24 = AXIS2_PLACEMENT_3D ( 'NONE', #196, #115, #52 ) ;
#25 = CARTESIAN_POINT ( 'NONE',  ( -15.00000000000000000, 0.000000000000000000, 5.000000000000000000 ) ) ;
#26 = COORDINATED_UNIVERSAL_TIME_OFFSET ( 9, 0, .AHEAD. ) ;
#27 = PRODUCT_DEFINITION_SHAPE ( 'NONE', 'NONE',  #165 ) ;
#28 = DIRECTION ( 'NONE',  ( 1.000000000000000000, 0.000000000000000000, 0.000000000000000000 ) ) ;
#29 = DIRECTION ( 'NONE',  ( 0.000000000000000000, 0.000000000000000000, 1.000000000000000000 ) ) ;
#30 = DIRECTION ( 'NONE',  ( 0.000000000000000000, 0.000000000000000000, -1.000000000000000000 ) ) ;
#31 = CARTESIAN_POINT ( 'NONE',  ( 15.00000000000000000, 1.836970198721029589E-15, 0.000000000000000000 ) ) ;
#32 =( NAMED_UNIT ( * ) SI_UNIT ( $, .STERADIAN. ) SOLID_ANGLE_UNIT ( ) );
#33 = DIRECTION ( 'NONE',  ( 1.000000000000000000, 0.000000000000000000, 0.000000000000000000 ) ) ;
#34 = FACE_OUTER_BOUND ( 'NONE', #221, .T. ) ;
#35 = AXIS2_PLACEMENT_3D ( 'NONE', #241, #152, #42 ) ;
#36 = LOCAL_TIME ( 8, 57, 25.00000000000000000, #140 ) ;
#37 = APPROVAL_PERSON_ORGANIZATION ( #40, #38, #146 ) ;
#38 = APPROVAL ( #220, 'UNSPECIFIED' ) ;
#39 = EDGE_LOOP ( 'NONE', ( #56, #121, #3, #98 ) ) ;
#40 = PERSON_AND_ORGANIZATION ( #192, #199 ) ;
#41 = VERTEX_POINT ( 'NONE', #131 ) ;
#42 = DIRECTION ( 'NONE',  ( 1.000000000000000000, 0.000000000000000000, 0.000000000000000000 ) ) ;
#43 = DATE_AND_TIME ( #181, #70 ) ;
#44 = DIRECTION ( 'NONE',  ( -1.000000000000000000, 0.000000000000000000, 0.000000000000000000 ) ) ;
#45 = APPROVAL_DATE_TIME ( #81, #71 ) ;
#46 = FACE_OUTER_BOUND ( 'NONE', #55, .T. ) ;
#47 = LINE ( 'NONE', #22, #163 ) ;
#48 = VERTEX_POINT ( 'NONE', #63 ) ;
#49 = DIRECTION ( 'NONE',  ( 0.000000000000000000, 0.000000000000000000, 1.000000000000000000 ) ) ;
#50 = PERSON_AND_ORGANIZATION ( #192, #199 ) ;
#51 = APPLICATION_CONTEXT ( 'configuration controlled 3d designs of mechanical parts and assemblies' ) ;
#52 = DIRECTION ( 'NONE',  ( 1.000000000000000000, 0.000000000000000000, 0.000000000000000000 ) ) ;
#53 = APPROVAL ( #139, 'UNSPECIFIED' ) ;
#54 = APPROVAL_STATUS ( 'not_yet_approved' ) ;
#55 = EDGE_LOOP ( 'NONE', ( #80, #120 ) ) ;
#56 = ORIENTED_EDGE ( 'NONE', *, *, #84, .F. ) ;
#57 = CC_DESIGN_PERSON_AND_ORGANIZATION_ASSIGNMENT ( #21, #209, ( #184 ) ) ;
#58 = ORIENTED_EDGE ( 'NONE', *, *, #225, .F. ) ;
#59 = CIRCLE ( 'NONE', #249, 5.250000000000000000 ) ;
#60 = EDGE_LOOP ( 'NONE', ( #58, #168, #87, #9 ) ) ;
#61 = DATE_TIME_ROLE ( 'classification_date' ) ;
#62 = EDGE_CURVE ( 'NONE', #166, #18, #12, .T. ) ;
#63 = CARTESIAN_POINT ( 'NONE',  ( -5.250000000000000000, 0.000000000000000000, 5.000000000000000000 ) ) ;
#64 = APPROVAL_ROLE ( '' ) ;
#65 = ORIENTED_EDGE ( 'NONE', *, *, #2, .F. ) ;
#66 = AXIS2_PLACEMENT_3D ( 'NONE', #212, #149, #205 ) ;
#67 = CC_DESIGN_APPROVAL ( #38, ( #15 ) ) ;
#68 = ORIENTED_EDGE ( 'NONE', *, *, #235, .T. ) ;
#69 = CC_DESIGN_SECURITY_CLASSIFICATION ( #15, ( #184 ) ) ;
#70 = LOCAL_TIME ( 8, 57, 25.00000000000000000, #26 ) ;
#71 = APPROVAL ( #54, 'UNSPECIFIED' ) ;
#72 = DIRECTION ( 'NONE',  ( 0.000000000000000000, 0.000000000000000000, -1.000000000000000000 ) ) ;
#73 = CARTESIAN_POINT ( 'NONE',  ( 15.00000000000000000, 1.836970198721029589E-15, 5.000000000000000000 ) ) ;
#74 = UNCERTAINTY_MEASURE_WITH_UNIT (LENGTH_MEASURE( 1.000000000000000082E-05 ), #218, 'distance_accuracy_value', 'NONE');
#75 = CARTESIAN_POINT ( 'NONE',  ( 5.250000000000000000, 6.429395695523604153E-16, 0.000000000000000000 ) ) ;
#76 = CC_DESIGN_APPROVAL ( #53, ( #165 ) ) ;
#77 = ADVANCED_FACE ( 'NONE', ( #83 ), #191, .T. ) ;
#78 = DIRECTION ( 'NONE',  ( -1.000000000000000000, 0.000000000000000000, 0.000000000000000000 ) ) ;
#79 = EDGE_LOOP ( 'NONE', ( #95, #126, #161, #180 ) ) ;
#80 = ORIENTED_EDGE ( 'NONE', *, *, #201, .F. ) ;
#81 = DATE_AND_TIME ( #222, #36 ) ;
#82 = CC_DESIGN_PERSON_AND_ORGANIZATION_ASSIGNMENT ( #236, #4, ( #165 ) ) ;
#83 = FACE_OUTER_BOUND ( 'NONE', #39, .T. ) ;
#84 = EDGE_CURVE ( 'NONE', #41, #238, #159, .T. ) ;
#85 = CARTESIAN_POINT ( 'NONE',  ( 0.000000000000000000, 0.000000000000000000, 5.000000000000000000 ) ) ;
#86 = AXIS2_PLACEMENT_3D ( 'NONE', #110, #49, #206 ) ;
#87 = ORIENTED_EDGE ( 'NONE', *, *, #141, .T. ) ;
#88 = CARTESIAN_POINT ( 'NONE',  ( 5.250000000000000000, 6.429395695523604153E-16, 5.000000000000000000 ) ) ;
#89 = ADVANCED_FACE ( 'NONE', ( #124 ), #227, .F. ) ;
#90 = APPROVAL_PERSON_ORGANIZATION ( #50, #53, #105 ) ;
#91 = PERSON_AND_ORGANIZATION_ROLE ( 'design_owner' ) ;
#92 = APPLICATION_CONTEXT ( 'configuration controlled 3d designs of mechanical parts and assemblies' ) ;
#93 = DIRECTION ( 'NONE',  ( 1.000000000000000000, 0.000000000000000000, 0.000000000000000000 ) ) ;
#94 = AXIS2_PLACEMENT_3D ( 'NONE', #7, #6, #28 ) ;
#95 = ORIENTED_EDGE ( 'NONE', *, *, #177, .T. ) ;
#96 = DIRECTION ( 'NONE',  ( 0.000000000000000000, 0.000000000000000000, 1.000000000000000000 ) ) ;
#97 = CC_DESIGN_PERSON_AND_ORGANIZATION_ASSIGNMENT ( #123, #128, ( #184 ) ) ;
#98 = ORIENTED_EDGE ( 'NONE', *, *, #141, .F. ) ;
#99 = CIRCLE ( 'NONE', #189, 5.250000000000000000 ) ;
#100 = ORIENTED_EDGE ( 'NONE', *, *, #219, .T. ) ;
#101 = PRODUCT_RELATED_PRODUCT_CATEGORY ( 'detail', '', ( #111 ) ) ;
#102 = DIRECTION ( 'NONE',  ( 0.000000000000000000, 0.000000000000000000, -1.000000000000000000 ) ) ;
#103 = DIRECTION ( 'NONE',  ( 0.000000000000000000, 0.000000000000000000, -1.000000000000000000 ) ) ;
#104 = EDGE_CURVE ( 'NONE', #48, #203, #47, .T. ) ;
#105 = APPROVAL_ROLE ( '' ) ;
#106 = CARTESIAN_POINT ( 'NONE',  ( 5.250000000000000000, 6.429395695523604153E-16, 5.000000000000000000 ) ) ;
#107 = MANIFOLD_SOLID_BREP ( 'Imported1', #127 ) ;
#108 = APPROVAL_PERSON_ORGANIZATION ( #239, #71, #64 ) ;
#109 = ORIENTED_EDGE ( 'NONE', *, *, #177, .F. ) ;
#110 = CARTESIAN_POINT ( 'NONE',  ( 0.000000000000000000, 0.000000000000000000, 5.000000000000000000 ) ) ;
#111 = PRODUCT ( 'bj623-10001', 'bj623-10001', '', ( #136 ) ) ;
#112 = CARTESIAN_POINT ( 'NONE',  ( -5.250000000000000000, 0.000000000000000000, 0.000000000000000000 ) ) ;
#113 = DIRECTION ( 'NONE',  ( 0.000000000000000000, 0.000000000000000000, -1.000000000000000000 ) ) ;
#114 = DIRECTION ( 'NONE',  ( 1.000000000000000000, 0.000000000000000000, 0.000000000000000000 ) ) ;
#115 = DIRECTION ( 'NONE',  ( 0.000000000000000000, 0.000000000000000000, 1.000000000000000000 ) ) ;
#116 = PERSON_AND_ORGANIZATION_ROLE ( 'classification_officer' ) ;
#117 = ORIENTED_EDGE ( 'NONE', *, *, #84, .T. ) ;
#118 = LOCAL_TIME ( 8, 57, 25.00000000000000000, #178 ) ;
#119 = CC_DESIGN_DATE_AND_TIME_ASSIGNMENT ( #226, #246, ( #165 ) ) ;
#120 = ORIENTED_EDGE ( 'NONE', *, *, #62, .F. ) ;
#121 = ORIENTED_EDGE ( 'NONE', *, *, #225, .T. ) ;
#122 = AXIS2_PLACEMENT_3D ( 'NONE', #211, #29, #193 ) ;
#123 = PERSON_AND_ORGANIZATION ( #192, #199 ) ;
#124 = FACE_OUTER_BOUND ( 'NONE', #79, .T. ) ;
#125 = CALENDAR_DATE ( 2021, 25, 10 ) ;
#126 = ORIENTED_EDGE ( 'NONE', *, *, #2, .T. ) ;
#127 = CLOSED_SHELL ( 'NONE', ( #89, #77, #231, #154, #160, #248 ) ) ;
#128 = PERSON_AND_ORGANIZATION_ROLE ( 'creator' ) ;
#129 = CARTESIAN_POINT ( 'NONE',  ( -15.00000000000000000, 0.000000000000000000, 0.000000000000000000 ) ) ;
#130 = CYLINDRICAL_SURFACE ( 'NONE', #213, 15.00000000000000000 ) ;
#131 = CARTESIAN_POINT ( 'NONE',  ( 15.00000000000000000, 1.836970198721029589E-15, 5.000000000000000000 ) ) ;
#132 = CARTESIAN_POINT ( 'NONE',  ( 0.000000000000000000, 0.000000000000000000, 5.000000000000000000 ) ) ;
#133 = CC_DESIGN_APPROVAL ( #71, ( #184 ) ) ;
#134 = DIRECTION ( 'NONE',  ( -1.000000000000000000, 0.000000000000000000, 0.000000000000000000 ) ) ;
#135 = FACE_OUTER_BOUND ( 'NONE', #223, .T. ) ;
#136 = MECHANICAL_CONTEXT ( 'NONE', #51, 'mechanical' ) ;
#137 = CC_DESIGN_DATE_AND_TIME_ASSIGNMENT ( #204, #61, ( #15 ) ) ;
#138 = AXIS2_PLACEMENT_3D ( 'NONE', #156, #113, #78 ) ;
#139 = APPROVAL_STATUS ( 'not_yet_approved' ) ;
#140 = COORDINATED_UNIVERSAL_TIME_OFFSET ( 9, 0, .AHEAD. ) ;
#141 = EDGE_CURVE ( 'NONE', #238, #18, #208, .T. ) ;
#142 = CIRCLE ( 'NONE', #228, 5.250000000000000000 ) ;
#143 = EDGE_LOOP ( 'NONE', ( #100, #68 ) ) ;
#144 = ORIENTED_EDGE ( 'NONE', *, *, #186, .F. ) ;
#145 = ORIENTED_EDGE ( 'NONE', *, *, #235, .F. ) ;
#146 = APPROVAL_ROLE ( '' ) ;
#147 = DESIGN_CONTEXT ( 'detailed design', #92, 'design' ) ;
#148 = APPROVAL_DATE_TIME ( #158, #53 ) ;
#149 = DIRECTION ( 'NONE',  ( 0.000000000000000000, 0.000000000000000000, 1.000000000000000000 ) ) ;
#150 = DIRECTION ( 'NONE',  ( -1.000000000000000000, 0.000000000000000000, 0.000000000000000000 ) ) ;
#151 = AXIS2_PLACEMENT_3D ( 'NONE', #182, #30, #150 ) ;
#152 = DIRECTION ( 'NONE',  ( 0.000000000000000000, 0.000000000000000000, 1.000000000000000000 ) ) ;
#153 = CARTESIAN_POINT ( 'NONE',  ( 0.000000000000000000, 0.000000000000000000, 0.000000000000000000 ) ) ;
#154 = ADVANCED_FACE ( 'NONE', ( #46, #210 ), #187, .F. ) ;
#155 = FACE_BOUND ( 'NONE', #19, .T. ) ;
#156 = CARTESIAN_POINT ( 'NONE',  ( 0.000000000000000000, 0.000000000000000000, 5.000000000000000000 ) ) ;
#157 = DIRECTION ( 'NONE',  ( 1.000000000000000000, 0.000000000000000000, 0.000000000000000000 ) ) ;
#158 = DATE_AND_TIME ( #200, #185 ) ;
#159 = CIRCLE ( 'NONE', #35, 15.00000000000000000 ) ;
#160 = ADVANCED_FACE ( 'NONE', ( #240 ), #130, .T. ) ;
#161 = ORIENTED_EDGE ( 'NONE', *, *, #219, .F. ) ;
#162 = ORIENTED_EDGE ( 'NONE', *, *, #170, .T. ) ;
#163 = VECTOR ( 'NONE', #102, 1000.000000000000000 ) ;
#164 = DIRECTION ( 'NONE',  ( 0.000000000000000000, 0.000000000000000000, -1.000000000000000000 ) ) ;
#165 = PRODUCT_DEFINITION ( 'UNKNOWN', '', #184, #147 ) ;
#166 = VERTEX_POINT ( 'NONE', #31 ) ;
#167 = COORDINATED_UNIVERSAL_TIME_OFFSET ( 9, 0, .AHEAD. ) ;
#168 = ORIENTED_EDGE ( 'NONE', *, *, #170, .F. ) ;
#169 = AXIS2_PLACEMENT_3D ( 'NONE', #85, #164, #44 ) ;
#170 = EDGE_CURVE ( 'NONE', #238, #41, #176, .T. ) ;
#171 = DIRECTION ( 'NONE',  ( 0.000000000000000000, 0.000000000000000000, -1.000000000000000000 ) ) ;
#172 = DIRECTION ( 'NONE',  ( 0.000000000000000000, 0.000000000000000000, 1.000000000000000000 ) ) ;
#173 = CARTESIAN_POINT ( 'NONE',  ( 0.000000000000000000, 0.000000000000000000, 5.000000000000000000 ) ) ;
#174 = DIRECTION ( 'NONE',  ( 1.000000000000000000, 0.000000000000000000, 0.000000000000000000 ) ) ;
#175 = CIRCLE ( 'NONE', #8, 15.00000000000000000 ) ;
#176 = CIRCLE ( 'NONE', #86, 15.00000000000000000 ) ;
#177 = EDGE_CURVE ( 'NONE', #48, #17, #183, .T. ) ;
#178 = COORDINATED_UNIVERSAL_TIME_OFFSET ( 9, 0, .AHEAD. ) ;
#179 = CC_DESIGN_PERSON_AND_ORGANIZATION_ASSIGNMENT ( #5, #116, ( #15 ) ) ;
#180 = ORIENTED_EDGE ( 'NONE', *, *, #104, .F. ) ;
#181 = CALENDAR_DATE ( 2021, 25, 10 ) ;
#182 = CARTESIAN_POINT ( 'NONE',  ( 0.000000000000000000, 0.000000000000000000, 5.000000000000000000 ) ) ;
#183 = CIRCLE ( 'NONE', #122, 5.250000000000000000 ) ;
#184 = PRODUCT_DEFINITION_FORMATION_WITH_SPECIFIED_SOURCE ( 'ANY', '', #111, .NOT_KNOWN. ) ;
#185 = LOCAL_TIME ( 8, 57, 25.00000000000000000, #167 ) ;
#186 = EDGE_CURVE ( 'NONE', #17, #48, #142, .T. ) ;
#187 = PLANE ( 'NONE',  #94 ) ;
#188 = LINE ( 'NONE', #88, #190 ) ;
#189 = AXIS2_PLACEMENT_3D ( 'NONE', #153, #243, #174 ) ;
#190 = VECTOR ( 'NONE', #171, 1000.000000000000000 ) ;
#191 = CYLINDRICAL_SURFACE ( 'NONE', #151, 15.00000000000000000 ) ;
#192 = PERSON ( 'UNSPECIFIED', 'UNSPECIFIED', 'UNSPECIFIED', ('UNSPECIFIED'), ('UNSPECIFIED'), ('UNSPECIFIED') ) ;
#193 = DIRECTION ( 'NONE',  ( 1.000000000000000000, 0.000000000000000000, 0.000000000000000000 ) ) ;
#194 = PLANE ( 'NONE',  #23 ) ;
#195 = APPLICATION_PROTOCOL_DEFINITION ( 'international standard', 'config_control_design', 1994, #51 ) ;
#196 = CARTESIAN_POINT ( 'NONE',  ( 0.000000000000000000, 0.000000000000000000, 0.000000000000000000 ) ) ;
#197 = CC_DESIGN_PERSON_AND_ORGANIZATION_ASSIGNMENT ( #13, #91, ( #111 ) ) ;
#198 = CARTESIAN_POINT ( 'NONE',  ( -15.00000000000000000, 0.000000000000000000, 5.000000000000000000 ) ) ;
#199 = ORGANIZATION ( 'UNSPECIFIED', 'UNSPECIFIED', '' ) ;
#200 = CALENDAR_DATE ( 2021, 25, 10 ) ;
#201 = EDGE_CURVE ( 'NONE', #18, #166, #175, .T. ) ;
#202 = CARTESIAN_POINT ( 'NONE',  ( 0.000000000000000000, 0.000000000000000000, 0.000000000000000000 ) ) ;
#203 = VERTEX_POINT ( 'NONE', #112 ) ;
#204 = DATE_AND_TIME ( #125, #118 ) ;
#205 = DIRECTION ( 'NONE',  ( 1.000000000000000000, 0.000000000000000000, 0.000000000000000000 ) ) ;
#206 = DIRECTION ( 'NONE',  ( 1.000000000000000000, 0.000000000000000000, 0.000000000000000000 ) ) ;
#207 = APPROVAL_DATE_TIME ( #43, #38 ) ;
#208 = LINE ( 'NONE', #25, #217 ) ;
#209 = PERSON_AND_ORGANIZATION_ROLE ( 'design_supplier' ) ;
#210 = FACE_BOUND ( 'NONE', #143, .T. ) ;
#211 = CARTESIAN_POINT ( 'NONE',  ( 0.000000000000000000, 0.000000000000000000, 5.000000000000000000 ) ) ;
#212 = CARTESIAN_POINT ( 'NONE',  ( 0.000000000000000000, 0.000000000000000000, 0.000000000000000000 ) ) ;
#213 = AXIS2_PLACEMENT_3D ( 'NONE', #229, #215, #134 ) ;
#214 = DIRECTION ( 'NONE',  ( 0.000000000000000000, 0.000000000000000000, 1.000000000000000000 ) ) ;
#215 = DIRECTION ( 'NONE',  ( 0.000000000000000000, 0.000000000000000000, -1.000000000000000000 ) ) ;
#216 = VECTOR ( 'NONE', #72, 1000.000000000000000 ) ;
#217 = VECTOR ( 'NONE', #103, 1000.000000000000000 ) ;
#218 =( LENGTH_UNIT ( ) NAMED_UNIT ( * ) SI_UNIT ( .MILLI., .METRE. ) );
#219 = EDGE_CURVE ( 'NONE', #203, #234, #59, .T. ) ;
#220 = APPROVAL_STATUS ( 'not_yet_approved' ) ;
#221 = EDGE_LOOP ( 'NONE', ( #65, #247, #1, #145 ) ) ;
#222 = CALENDAR_DATE ( 2021, 25, 10 ) ;
#223 = EDGE_LOOP ( 'NONE', ( #162, #117 ) ) ;
#224 = SHAPE_DEFINITION_REPRESENTATION ( #27, #10 ) ;
#225 = EDGE_CURVE ( 'NONE', #41, #166, #244, .T. ) ;
#226 = DATE_AND_TIME ( #20, #245 ) ;
#227 = CYLINDRICAL_SURFACE ( 'NONE', #169, 5.250000000000000000 ) ;
#228 = AXIS2_PLACEMENT_3D ( 'NONE', #132, #214, #114 ) ;
#229 = CARTESIAN_POINT ( 'NONE',  ( 0.000000000000000000, 0.000000000000000000, 5.000000000000000000 ) ) ;
#230 = DIRECTION ( 'NONE',  ( 0.000000000000000000, 0.000000000000000000, 1.000000000000000000 ) ) ;
#231 = ADVANCED_FACE ( 'NONE', ( #135, #155 ), #194, .T. ) ;
#232 = APPLICATION_PROTOCOL_DEFINITION ( 'international standard', 'config_control_design', 1994, #92 ) ;
#233 = SECURITY_CLASSIFICATION_LEVEL ( 'unclassified' ) ;
#234 = VERTEX_POINT ( 'NONE', #75 ) ;
#235 = EDGE_CURVE ( 'NONE', #234, #203, #99, .T. ) ;
#236 = PERSON_AND_ORGANIZATION ( #192, #199 ) ;
#237 =( GEOMETRIC_REPRESENTATION_CONTEXT ( 3 ) GLOBAL_UNCERTAINTY_ASSIGNED_CONTEXT ( ( #74 ) ) GLOBAL_UNIT_ASSIGNED_CONTEXT ( ( #218, #14, #32 ) ) REPRESENTATION_CONTEXT ( 'NONE', 'WORKASPACE' ) );
#238 = VERTEX_POINT ( 'NONE', #198 ) ;
#239 = PERSON_AND_ORGANIZATION ( #192, #199 ) ;
#240 = FACE_OUTER_BOUND ( 'NONE', #60, .T. ) ;
#241 = CARTESIAN_POINT ( 'NONE',  ( 0.000000000000000000, 0.000000000000000000, 5.000000000000000000 ) ) ;
#242 = CARTESIAN_POINT ( 'NONE',  ( 0.000000000000000000, 0.000000000000000000, 0.000000000000000000 ) ) ;
#243 = DIRECTION ( 'NONE',  ( 0.000000000000000000, 0.000000000000000000, 1.000000000000000000 ) ) ;
#244 = LINE ( 'NONE', #73, #216 ) ;
#245 = LOCAL_TIME ( 8, 57, 25.00000000000000000, #16 ) ;
#246 = DATE_TIME_ROLE ( 'creation_date' ) ;
#247 = ORIENTED_EDGE ( 'NONE', *, *, #186, .T. ) ;
#248 = ADVANCED_FACE ( 'NONE', ( #34 ), #11, .F. ) ;
#249 = AXIS2_PLACEMENT_3D ( 'NONE', #202, #96, #157 ) ;
ENDSEC;
END-ISO-10303-21;
