ISO-10303-21;
HEADER;
FILE_DESCRIPTION (( 'STEP AP203' ),
    '1' );
FILE_NAME ('bj790-12001.STEP',
    '2021-10-25T00:28:31',
    ( '' ),
    ( '' ),
    'SwSTEP 2.0',
    'SolidWorks 2020',
    '' );
FILE_SCHEMA (( 'CONFIG_CONTROL_DESIGN' ));
ENDSEC;

DATA;
#1 = DIRECTION ( 'NONE',  ( 1.000000000000000000, 0.000000000000000000, 0.000000000000000000 ) ) ;
#2 = AXIS2_PLACEMENT_3D ( 'NONE', #92, #307, #29 ) ;
#3 = CARTESIAN_POINT ( 'NONE',  ( 0.000000000000000000, 0.000000000000000000, 27.00000000000000000 ) ) ;
#4 = EDGE_LOOP ( 'NONE', ( #104, #169, #239, #112 ) ) ;
#5 = PLANE ( 'NONE',  #154 ) ;
#6 = FACE_OUTER_BOUND ( 'NONE', #295, .T. ) ;
#7 = CC_DESIGN_APPROVAL ( #83, ( #269 ) ) ;
#8 = ORIENTED_EDGE ( 'NONE', *, *, #66, .T. ) ;
#9 = DIRECTION ( 'NONE',  ( 0.000000000000000000, 0.000000000000000000, 1.000000000000000000 ) ) ;
#10 = PERSON_AND_ORGANIZATION ( #311, #222 ) ;
#11 = ORIENTED_EDGE ( 'NONE', *, *, #52, .T. ) ;
#12 = CARTESIAN_POINT ( 'NONE',  ( 0.000000000000000000, 0.000000000000000000, 23.99999999982965093 ) ) ;
#13 = VERTEX_POINT ( 'NONE', #363 ) ;
#14 = DIRECTION ( 'NONE',  ( 1.000000000000000000, 0.000000000000000000, 0.000000000000000000 ) ) ;
#15 = ADVANCED_FACE ( 'NONE', ( #402 ), #174, .T. ) ;
#16 = CIRCLE ( 'NONE', #243, 3.000000000000000000 ) ;
#17 = AXIS2_PLACEMENT_3D ( 'NONE', #70, #250, #405 ) ;
#18 = DIRECTION ( 'NONE',  ( 0.000000000000000000, 0.000000000000000000, 1.000000000000000000 ) ) ;
#19 = COORDINATED_UNIVERSAL_TIME_OFFSET ( 9, 0, .AHEAD. ) ;
#20 = EDGE_LOOP ( 'NONE', ( #54, #175 ) ) ;
#21 = DIRECTION ( 'NONE',  ( 0.000000000000000000, 0.000000000000000000, 1.000000000000000000 ) ) ;
#22 = ORIENTED_EDGE ( 'NONE', *, *, #50, .F. ) ;
#23 = ADVANCED_BREP_SHAPE_REPRESENTATION ( 'bj790-12001', ( #333, #335 ), #148 ) ;
#24 = CIRCLE ( 'NONE', #297, 4.712667011999999822 ) ;
#25 = EDGE_CURVE ( 'NONE', #199, #13, #314, .T. ) ;
#26 = DIRECTION ( 'NONE',  ( 0.000000000000000000, 0.000000000000000000, 1.000000000000000000 ) ) ;
#27 = PERSON_AND_ORGANIZATION ( #311, #222 ) ;
#28 = VECTOR ( 'NONE', #165, 1000.000000000000000 ) ;
#29 = DIRECTION ( 'NONE',  ( 1.000000000000000000, 0.000000000000000000, 0.000000000000000000 ) ) ;
#30 = APPROVAL_DATE_TIME ( #274, #61 ) ;
#31 = PLANE ( 'NONE',  #86 ) ;
#32 = VECTOR ( 'NONE', #62, 1000.000000000000227 ) ;
#33 = AXIS2_PLACEMENT_3D ( 'NONE', #379, #257, #103 ) ;
#34 = DIRECTION ( 'NONE',  ( 0.3420201489484060997, 4.188538806535665477E-17, -0.9396926187393992436 ) ) ;
#35 = CARTESIAN_POINT ( 'NONE',  ( 2.000000000000000000, 0.000000000000000000, 31.06996153897794954 ) ) ;
#36 = EDGE_CURVE ( 'NONE', #355, #397, #24, .T. ) ;
#37 = CARTESIAN_POINT ( 'NONE',  ( 6.000000000000001776, 7.347880794884122694E-16, 18.00000000000000000 ) ) ;
#38 = APPLICATION_CONTEXT ( 'configuration controlled 3d designs of mechanical parts and assemblies' ) ;
#39 = ORIENTED_EDGE ( 'NONE', *, *, #237, .F. ) ;
#40 = DIRECTION ( 'NONE',  ( 0.000000000000000000, 0.000000000000000000, 1.000000000000000000 ) ) ;
#41 = APPROVAL_PERSON_ORGANIZATION ( #252, #61, #173 ) ;
#42 =( NAMED_UNIT ( * ) PLANE_ANGLE_UNIT ( ) SI_UNIT ( $, .RADIAN. ) );
#43 = ADVANCED_FACE ( 'NONE', ( #277 ), #360, .T. ) ;
#44 = DIRECTION ( 'NONE',  ( 0.000000000000000000, -1.000000000000000000, 0.000000000000000000 ) ) ;
#45 = ORIENTED_EDGE ( 'NONE', *, *, #361, .T. ) ;
#46 = LINE ( 'NONE', #229, #356 ) ;
#47 = ORIENTED_EDGE ( 'NONE', *, *, #117, .T. ) ;
#48 = AXIS2_PLACEMENT_3D ( 'NONE', #266, #149, #391 ) ;
#49 = APPROVAL_PERSON_ORGANIZATION ( #263, #83, #357 ) ;
#50 = EDGE_CURVE ( 'NONE', #72, #234, #82, .T. ) ;
#51 = DIRECTION ( 'NONE',  ( 0.000000000000000000, 0.000000000000000000, 1.000000000000000000 ) ) ;
#52 = EDGE_CURVE ( 'NONE', #234, #209, #53, .T. ) ;
#53 = CIRCLE ( 'NONE', #278, 6.000000000000000000 ) ;
#54 = ORIENTED_EDGE ( 'NONE', *, *, #98, .T. ) ;
#55 = DIRECTION ( 'NONE',  ( 1.000000000000000000, 0.000000000000000000, 0.000000000000000000 ) ) ;
#56 = ORIENTED_EDGE ( 'NONE', *, *, #52, .F. ) ;
#57 = AXIS2_PLACEMENT_3D ( 'NONE', #320, #44, #291 ) ;
#58 = ORIENTED_EDGE ( 'NONE', *, *, #225, .F. ) ;
#59 = PERSON_AND_ORGANIZATION_ROLE ( 'design_supplier' ) ;
#60 = EDGE_LOOP ( 'NONE', ( #362, #395 ) ) ;
#61 = APPROVAL ( #347, 'UNSPECIFIED' ) ;
#62 = DIRECTION ( 'NONE',  ( -0.3420201489484060997, 0.000000000000000000, -0.9396926187393992436 ) ) ;
#63 = CARTESIAN_POINT ( 'NONE',  ( 0.000000000000000000, 0.000000000000000000, 21.53691825000000293 ) ) ;
#64 = DIRECTION ( 'NONE',  ( 0.000000000000000000, 0.000000000000000000, 1.000000000000000000 ) ) ;
#65 = ADVANCED_FACE ( 'NONE', ( #181 ), #341, .T. ) ;
#66 = EDGE_CURVE ( 'NONE', #355, #349, #305, .T. ) ;
#67 = DIRECTION ( 'NONE',  ( 0.000000000000000000, 0.000000000000000000, 1.000000000000000000 ) ) ;
#68 = CIRCLE ( 'NONE', #99, 3.000000000000000000 ) ;
#69 = LOCAL_TIME ( 9, 28, 31.00000000000000000, #19 ) ;
#70 = CARTESIAN_POINT ( 'NONE',  ( 0.000000000000000000, 0.000000000000000000, 19.00000000000000000 ) ) ;
#71 = PRODUCT_DEFINITION_SHAPE ( 'NONE', 'NONE',  #269 ) ;
#72 = VERTEX_POINT ( 'NONE', #214 ) ;
#73 = CARTESIAN_POINT ( 'NONE',  ( 2.000000000000000000, 0.000000000000000000, 27.00000000000000000 ) ) ;
#74 = EDGE_LOOP ( 'NONE', ( #358, #8, #91, #108 ) ) ;
#75 = EDGE_LOOP ( 'NONE', ( #80, #45 ) ) ;
#76 = AXIS2_PLACEMENT_3D ( 'NONE', #210, #64, #55 ) ;
#77 = FACE_OUTER_BOUND ( 'NONE', #319, .T. ) ;
#78 = CC_DESIGN_PERSON_AND_ORGANIZATION_ASSIGNMENT ( #279, #157, ( #79 ) ) ;
#79 = SECURITY_CLASSIFICATION ( '', '', #303 ) ;
#80 = ORIENTED_EDGE ( 'NONE', *, *, #213, .T. ) ;
#81 = CARTESIAN_POINT ( 'NONE',  ( -6.000000000000000000, 7.347880794884119736E-16, 31.06996153897794954 ) ) ;
#82 = LINE ( 'NONE', #306, #248 ) ;
#83 = APPROVAL ( #389, 'UNSPECIFIED' ) ;
#84 = DIRECTION ( 'NONE',  ( 1.000000000000000000, 0.000000000000000000, 0.000000000000000000 ) ) ;
#85 = EDGE_LOOP ( 'NONE', ( #366, #180, #56, #22 ) ) ;
#86 = AXIS2_PLACEMENT_3D ( 'NONE', #191, #193, #102 ) ;
#87 = CARTESIAN_POINT ( 'NONE',  ( -4.712667011999999822, 0.000000000000000000, 21.53691825000000293 ) ) ;
#88 = AXIS2_PLACEMENT_3D ( 'NONE', #105, #94, #221 ) ;
#89 = FACE_OUTER_BOUND ( 'NONE', #85, .T. ) ;
#90 = CYLINDRICAL_SURFACE ( 'NONE', #136, 2.000000000000000000 ) ;
#91 = ORIENTED_EDGE ( 'NONE', *, *, #98, .F. ) ;
#92 = CARTESIAN_POINT ( 'NONE',  ( 0.000000000000000000, 0.000000000000000000, 31.06996153897794954 ) ) ;
#93 = DIRECTION ( 'NONE',  ( 0.000000000000000000, 0.000000000000000000, 1.000000000000000000 ) ) ;
#94 = DIRECTION ( 'NONE',  ( 0.000000000000000000, 0.000000000000000000, 1.000000000000000000 ) ) ;
#95 = DIRECTION ( 'NONE',  ( 0.000000000000000000, 0.000000000000000000, 1.000000000000000000 ) ) ;
#96 = APPROVAL_PERSON_ORGANIZATION ( #27, #125, #186 ) ;
#97 = DIRECTION ( 'NONE',  ( -1.000000000000000000, 0.000000000000000000, 0.000000000000000000 ) ) ;
#98 = EDGE_CURVE ( 'NONE', #394, #349, #16, .T. ) ;
#99 = AXIS2_PLACEMENT_3D ( 'NONE', #315, #67, #192 ) ;
#100 = LINE ( 'NONE', #337, #114 ) ;
#101 = DIRECTION ( 'NONE',  ( 0.000000000000000000, 0.000000000000000000, 1.000000000000000000 ) ) ;
#102 = DIRECTION ( 'NONE',  ( 1.000000000000000000, 0.000000000000000000, 0.000000000000000000 ) ) ;
#103 = DIRECTION ( 'NONE',  ( 1.000000000000000000, 0.000000000000000000, 0.000000000000000000 ) ) ;
#104 = ORIENTED_EDGE ( 'NONE', *, *, #242, .F. ) ;
#105 = CARTESIAN_POINT ( 'NONE',  ( 0.000000000000000000, 0.000000000000000000, 21.53691825000000293 ) ) ;
#106 = CIRCLE ( 'NONE', #161, 6.000000000000000000 ) ;
#107 = CIRCLE ( 'NONE', #216, 6.000000000000000000 ) ;
#108 = ORIENTED_EDGE ( 'NONE', *, *, #322, .F. ) ;
#109 = DIRECTION ( 'NONE',  ( 0.000000000000000000, 0.000000000000000000, 1.000000000000000000 ) ) ;
#110 = EDGE_CURVE ( 'NONE', #72, #240, #328, .T. ) ;
#111 = DIRECTION ( 'NONE',  ( 1.000000000000000000, 0.000000000000000000, 0.000000000000000000 ) ) ;
#112 = ORIENTED_EDGE ( 'NONE', *, *, #384, .F. ) ;
#113 = VERTEX_POINT ( 'NONE', #217 ) ;
#114 = VECTOR ( 'NONE', #34, 1000.000000000000227 ) ;
#115 = DIRECTION ( 'NONE',  ( 1.000000000000000000, 0.000000000000000000, 0.000000000000000000 ) ) ;
#116 = ORIENTED_EDGE ( 'NONE', *, *, #25, .F. ) ;
#117 = EDGE_CURVE ( 'NONE', #209, #234, #106, .T. ) ;
#118 = DIRECTION ( 'NONE',  ( 1.000000000000000000, 0.000000000000000000, 0.000000000000000000 ) ) ;
#119 = CARTESIAN_POINT ( 'NONE',  ( 0.000000000000000000, 0.000000000000000000, 0.000000000000000000 ) ) ;
#120 = CALENDAR_DATE ( 2021, 25, 10 ) ;
#121 = AXIS2_PLACEMENT_3D ( 'NONE', #310, #371, #1 ) ;
#122 = DIRECTION ( 'NONE',  ( 0.000000000000000000, 0.000000000000000000, -1.000000000000000000 ) ) ;
#123 = LINE ( 'NONE', #81, #399 ) ;
#124 = CARTESIAN_POINT ( 'NONE',  ( 0.000000000000000000, 0.000000000000000000, 18.00000000000000000 ) ) ;
#125 = APPROVAL ( #126, 'UNSPECIFIED' ) ;
#126 = APPROVAL_STATUS ( 'not_yet_approved' ) ;
#127 = DIRECTION ( 'NONE',  ( 1.000000000000000000, 0.000000000000000000, 0.000000000000000000 ) ) ;
#128 = DIRECTION ( 'NONE',  ( 0.000000000000000000, 0.000000000000000000, 1.000000000000000000 ) ) ;
#129 = CC_DESIGN_DATE_AND_TIME_ASSIGNMENT ( #168, #288, ( #269 ) ) ;
#130 = CALENDAR_DATE ( 2021, 25, 10 ) ;
#131 = PERSON_AND_ORGANIZATION_ROLE ( 'creator' ) ;
#132 = EDGE_CURVE ( 'NONE', #13, #199, #381, .T. ) ;
#133 = DIRECTION ( 'NONE',  ( 0.000000000000000000, 0.000000000000000000, 1.000000000000000000 ) ) ;
#134 = ORIENTED_EDGE ( 'NONE', *, *, #372, .F. ) ;
#135 = DIRECTION ( 'NONE',  ( 0.000000000000000000, 0.000000000000000000, -1.000000000000000000 ) ) ;
#136 = AXIS2_PLACEMENT_3D ( 'NONE', #367, #128, #340 ) ;
#137 = APPLICATION_CONTEXT ( 'configuration controlled 3d designs of mechanical parts and assemblies' ) ;
#138 = CONICAL_SURFACE ( 'NONE', #231, 6.000000000000000000, 0.5235985737060560030 ) ;
#139 = CARTESIAN_POINT ( 'NONE',  ( 0.000000000000000000, 0.000000000000000000, 0.000000000000000000 ) ) ;
#140 = ORIENTED_EDGE ( 'NONE', *, *, #50, .T. ) ;
#141 = APPLICATION_PROTOCOL_DEFINITION ( 'international standard', 'config_control_design', 1994, #38 ) ;
#142 = ORIENTED_EDGE ( 'NONE', *, *, #200, .F. ) ;
#143 = DIRECTION ( 'NONE',  ( 0.000000000000000000, 0.000000000000000000, 1.000000000000000000 ) ) ;
#144 = ORIENTED_EDGE ( 'NONE', *, *, #398, .F. ) ;
#145 = DIRECTION ( 'NONE',  ( 0.000000000000000000, 0.000000000000000000, 1.000000000000000000 ) ) ;
#146 = ORIENTED_EDGE ( 'NONE', *, *, #132, .F. ) ;
#147 = ORIENTED_EDGE ( 'NONE', *, *, #66, .F. ) ;
#148 =( GEOMETRIC_REPRESENTATION_CONTEXT ( 3 ) GLOBAL_UNCERTAINTY_ASSIGNED_CONTEXT ( ( #380 ) ) GLOBAL_UNIT_ASSIGNED_CONTEXT ( ( #344, #42, #166 ) ) REPRESENTATION_CONTEXT ( 'NONE', 'WORKASPACE' ) );
#149 = DIRECTION ( 'NONE',  ( 1.224646799147353207E-16, 1.000000000000000000, -0.000000000000000000 ) ) ;
#150 = ORIENTED_EDGE ( 'NONE', *, *, #213, .F. ) ;
#151 = FACE_OUTER_BOUND ( 'NONE', #74, .T. ) ;
#152 = FACE_OUTER_BOUND ( 'NONE', #204, .T. ) ;
#153 = ORIENTED_EDGE ( 'NONE', *, *, #339, .T. ) ;
#154 = AXIS2_PLACEMENT_3D ( 'NONE', #139, #135, #382 ) ;
#155 = DIRECTION ( 'NONE',  ( 0.000000000000000000, 0.000000000000000000, 1.000000000000000000 ) ) ;
#156 = EDGE_CURVE ( 'NONE', #355, #209, #245, .T. ) ;
#157 = PERSON_AND_ORGANIZATION_ROLE ( 'classification_officer' ) ;
#158 = LINE ( 'NONE', #195, #226 ) ;
#159 = PERSON_AND_ORGANIZATION ( #311, #222 ) ;
#160 = DIRECTION ( 'NONE',  ( 0.4999998251561786899, 0.000000000000000000, 0.8660255047305424059 ) ) ;
#161 = AXIS2_PLACEMENT_3D ( 'NONE', #276, #95, #270 ) ;
#162 = AXIS2_PLACEMENT_3D ( 'NONE', #282, #373, #97 ) ;
#163 = LINE ( 'NONE', #35, #28 ) ;
#164 = COORDINATED_UNIVERSAL_TIME_OFFSET ( 9, 0, .AHEAD. ) ;
#165 = DIRECTION ( 'NONE',  ( 0.000000000000000000, 0.000000000000000000, 1.000000000000000000 ) ) ;
#166 =( NAMED_UNIT ( * ) SI_UNIT ( $, .STERADIAN. ) SOLID_ANGLE_UNIT ( ) );
#167 = CARTESIAN_POINT ( 'NONE',  ( -6.000000000000000000, 7.347880794884119736E-16, 1.500000000000000000 ) ) ;
#168 = DATE_AND_TIME ( #285, #375 ) ;
#169 = ORIENTED_EDGE ( 'NONE', *, *, #25, .T. ) ;
#170 = TOROIDAL_SURFACE ( 'NONE', #183, 2.999999999799995098, 3.000000000170345071 ) ;
#171 = ADVANCED_FACE ( 'NONE', ( #152 ), #90, .F. ) ;
#172 = CARTESIAN_POINT ( 'NONE',  ( 3.000000000000000000, 0.000000000000000000, 27.00000000000000000 ) ) ;
#173 = APPROVAL_ROLE ( '' ) ;
#174 = CONICAL_SURFACE ( 'NONE', #386, 4.712667011999999822, 0.3490658563824580729 ) ;
#175 = ORIENTED_EDGE ( 'NONE', *, *, #200, .T. ) ;
#176 = FACE_OUTER_BOUND ( 'NONE', #20, .T. ) ;
#177 = ADVANCED_FACE ( 'NONE', ( #251 ), #31, .T. ) ;
#178 = CIRCLE ( 'NONE', #17, 2.000000000000000000 ) ;
#179 = APPLICATION_PROTOCOL_DEFINITION ( 'international standard', 'config_control_design', 1994, #137 ) ;
#180 = ORIENTED_EDGE ( 'NONE', *, *, #372, .T. ) ;
#181 = FACE_OUTER_BOUND ( 'NONE', #4, .T. ) ;
#182 = DIRECTION ( 'NONE',  ( 1.000000000000000000, 0.000000000000000000, 0.000000000000000000 ) ) ;
#183 = AXIS2_PLACEMENT_3D ( 'NONE', #12, #145, #265 ) ;
#184 = CARTESIAN_POINT ( 'NONE',  ( 0.000000000000000000, 0.000000000000000000, 0.000000000000000000 ) ) ;
#185 = DIRECTION ( 'NONE',  ( 0.000000000000000000, 0.000000000000000000, 1.000000000000000000 ) ) ;
#186 = APPROVAL_ROLE ( '' ) ;
#187 = ORIENTED_EDGE ( 'NONE', *, *, #132, .T. ) ;
#188 = DATE_AND_TIME ( #219, #267 ) ;
#189 = AXIS2_PLACEMENT_3D ( 'NONE', #294, #9, #111 ) ;
#190 = CC_DESIGN_PERSON_AND_ORGANIZATION_ASSIGNMENT ( #10, #264, ( #403 ) ) ;
#191 = CARTESIAN_POINT ( 'NONE',  ( 0.000000000000000000, 2.000000000000000000, 19.00000000000000000 ) ) ;
#192 = DIRECTION ( 'NONE',  ( 1.000000000000000000, 0.000000000000000000, 0.000000000000000000 ) ) ;
#193 = DIRECTION ( 'NONE',  ( 0.000000000000000000, 0.000000000000000000, 1.000000000000000000 ) ) ;
#194 = ADVANCED_FACE ( 'NONE', ( #346 ), #197, .T. ) ;
#195 = CARTESIAN_POINT ( 'NONE',  ( 6.000000000000000000, 0.000000000000000000, 1.500000000000000000 ) ) ;
#196 = AXIS2_PLACEMENT_3D ( 'NONE', #238, #298, #14 ) ;
#197 = CONICAL_SURFACE ( 'NONE', #162, 4.712667011999999822, 0.3490658563824580729 ) ;
#198 = DIRECTION ( 'NONE',  ( 1.000000000000000000, 0.000000000000000000, 0.000000000000000000 ) ) ;
#199 = VERTEX_POINT ( 'NONE', #343 ) ;
#200 = EDGE_CURVE ( 'NONE', #349, #394, #68, .T. ) ;
#201 = FACE_OUTER_BOUND ( 'NONE', #256, .T. ) ;
#202 = EDGE_LOOP ( 'NONE', ( #147, #258, #212, #142 ) ) ;
#203 = DIRECTION ( 'NONE',  ( 1.000000000000000000, 0.000000000000000000, 0.000000000000000000 ) ) ;
#204 = EDGE_LOOP ( 'NONE', ( #325, #153, #353, #39 ) ) ;
#205 = DIRECTION ( 'NONE',  ( -0.4999998251561786899, 6.123231854517505175E-17, 0.8660255047305424059 ) ) ;
#206 = CARTESIAN_POINT ( 'NONE',  ( 0.000000000000000000, 0.000000000000000000, 0.000000000000000000 ) ) ;
#207 = CC_DESIGN_APPROVAL ( #61, ( #287 ) ) ;
#208 = ORIENTED_EDGE ( 'NONE', *, *, #237, .T. ) ;
#209 = VERTEX_POINT ( 'NONE', #312 ) ;
#210 = CARTESIAN_POINT ( 'NONE',  ( 0.000000000000000000, 0.000000000000000000, 31.06996153897794954 ) ) ;
#211 = MECHANICAL_CONTEXT ( 'NONE', #137, 'mechanical' ) ;
#212 = ORIENTED_EDGE ( 'NONE', *, *, #322, .T. ) ;
#213 = EDGE_CURVE ( 'NONE', #230, #232, #178, .T. ) ;
#214 = CARTESIAN_POINT ( 'NONE',  ( 6.000000000000000000, 0.000000000000000000, 1.500000000000000000 ) ) ;
#215 = AXIS2_PLACEMENT_3D ( 'NONE', #119, #93, #241 ) ;
#216 = AXIS2_PLACEMENT_3D ( 'NONE', #281, #101, #376 ) ;
#217 = CARTESIAN_POINT ( 'NONE',  ( -2.000000000000000000, 2.449293598294706414E-16, 27.00000000000000000 ) ) ;
#218 = DIRECTION ( 'NONE',  ( -1.000000000000000000, 0.000000000000000000, 0.000000000000000000 ) ) ;
#219 = CALENDAR_DATE ( 2021, 25, 10 ) ;
#220 = COORDINATED_UNIVERSAL_TIME_OFFSET ( 9, 0, .AHEAD. ) ;
#221 = DIRECTION ( 'NONE',  ( 1.000000000000000000, 0.000000000000000000, 0.000000000000000000 ) ) ;
#222 = ORGANIZATION ( 'UNSPECIFIED', 'UNSPECIFIED', '' ) ;
#223 = EDGE_CURVE ( 'NONE', #113, #293, #283, .T. ) ;
#224 = CALENDAR_DATE ( 2021, 25, 10 ) ;
#225 = EDGE_CURVE ( 'NONE', #397, #234, #100, .T. ) ;
#226 = VECTOR ( 'NONE', #160, 1000.000000000000000 ) ;
#227 = CARTESIAN_POINT ( 'NONE',  ( 4.712667012000014033, 0.000000000000000000, 21.53691825000000293 ) ) ;
#228 = APPROVAL_DATE_TIME ( #317, #83 ) ;
#229 = CARTESIAN_POINT ( 'NONE',  ( -6.000000000000000000, 7.347880794884119736E-16, 1.500000000000000000 ) ) ;
#230 = VERTEX_POINT ( 'NONE', #286 ) ;
#231 = AXIS2_PLACEMENT_3D ( 'NONE', #387, #133, #354 ) ;
#232 = VERTEX_POINT ( 'NONE', #345 ) ;
#233 = CARTESIAN_POINT ( 'NONE',  ( -3.000000000000000000, 4.722646484567595534E-16, 27.00000000000000000 ) ) ;
#234 = VERTEX_POINT ( 'NONE', #37 ) ;
#235 = COORDINATED_UNIVERSAL_TIME_OFFSET ( 9, 0, .AHEAD. ) ;
#236 = ORIENTED_EDGE ( 'NONE', *, *, #339, .F. ) ;
#237 = EDGE_CURVE ( 'NONE', #230, #293, #163, .T. ) ;
#238 = CARTESIAN_POINT ( 'NONE',  ( 0.000000000000000000, 0.000000000000000000, 1.500000000000000000 ) ) ;
#239 = ORIENTED_EDGE ( 'NONE', *, *, #377, .T. ) ;
#240 = VERTEX_POINT ( 'NONE', #167 ) ;
#241 = DIRECTION ( 'NONE',  ( 1.000000000000000000, 0.000000000000000000, 0.000000000000000000 ) ) ;
#242 = EDGE_CURVE ( 'NONE', #199, #240, #46, .T. ) ;
#243 = AXIS2_PLACEMENT_3D ( 'NONE', #359, #302, #182 ) ;
#244 = DIRECTION ( 'NONE',  ( 0.000000000000000000, 0.000000000000000000, 1.000000000000000000 ) ) ;
#245 = LINE ( 'NONE', #87, #32 ) ;
#246 = AXIS2_PLACEMENT_3D ( 'NONE', #184, #185, #118 ) ;
#247 = CC_DESIGN_APPROVAL ( #125, ( #79 ) ) ;
#248 = VECTOR ( 'NONE', #155, 1000.000000000000000 ) ;
#249 = EDGE_CURVE ( 'NONE', #293, #113, #383, .T. ) ;
#250 = DIRECTION ( 'NONE',  ( 0.000000000000000000, 0.000000000000000000, 1.000000000000000000 ) ) ;
#251 = FACE_OUTER_BOUND ( 'NONE', #75, .T. ) ;
#252 = PERSON_AND_ORGANIZATION ( #311, #222 ) ;
#253 = ORIENTED_EDGE ( 'NONE', *, *, #36, .F. ) ;
#254 = ADVANCED_FACE ( 'NONE', ( #77 ), #138, .T. ) ;
#255 = CYLINDRICAL_SURFACE ( 'NONE', #33, 2.000000000000000000 ) ;
#256 = EDGE_LOOP ( 'NONE', ( #236, #150, #208, #262 ) ) ;
#257 = DIRECTION ( 'NONE',  ( 0.000000000000000000, 0.000000000000000000, 1.000000000000000000 ) ) ;
#258 = ORIENTED_EDGE ( 'NONE', *, *, #36, .T. ) ;
#259 = AXIS2_PLACEMENT_3D ( 'NONE', #350, #40, #127 ) ;
#260 = FACE_BOUND ( 'NONE', #60, .T. ) ;
#261 = LINE ( 'NONE', #385, #323 ) ;
#262 = ORIENTED_EDGE ( 'NONE', *, *, #249, .T. ) ;
#263 = PERSON_AND_ORGANIZATION ( #311, #222 ) ;
#264 = PERSON_AND_ORGANIZATION_ROLE ( 'design_owner' ) ;
#265 = DIRECTION ( 'NONE',  ( 1.000000000000000000, 0.000000000000000000, 0.000000000000000000 ) ) ;
#266 = CARTESIAN_POINT ( 'NONE',  ( -2.999999999799995098, 3.673940397197124473E-16, 23.99999999982965093 ) ) ;
#267 = LOCAL_TIME ( 9, 28, 31.00000000000000000, #220 ) ;
#268 = ORIENTED_EDGE ( 'NONE', *, *, #225, .T. ) ;
#269 = PRODUCT_DEFINITION ( 'UNKNOWN', '', #287, #338 ) ;
#270 = DIRECTION ( 'NONE',  ( 1.000000000000000000, 0.000000000000000000, 0.000000000000000000 ) ) ;
#271 = DIRECTION ( 'NONE',  ( 1.000000000000000000, 0.000000000000000000, 0.000000000000000000 ) ) ;
#272 = PERSON_AND_ORGANIZATION_ROLE ( 'creator' ) ;
#273 = ORIENTED_EDGE ( 'NONE', *, *, #156, .T. ) ;
#274 = DATE_AND_TIME ( #120, #392 ) ;
#275 = LOCAL_TIME ( 9, 28, 31.00000000000000000, #164 ) ;
#276 = CARTESIAN_POINT ( 'NONE',  ( 0.000000000000000000, 0.000000000000000000, 18.00000000000000000 ) ) ;
#277 = FACE_OUTER_BOUND ( 'NONE', #304, .T. ) ;
#278 = AXIS2_PLACEMENT_3D ( 'NONE', #124, #324, #115 ) ;
#279 = PERSON_AND_ORGANIZATION ( #311, #222 ) ;
#280 = ADVANCED_FACE ( 'NONE', ( #348 ), #170, .T. ) ;
#281 = CARTESIAN_POINT ( 'NONE',  ( 0.000000000000000000, 0.000000000000000000, 1.500000000000000000 ) ) ;
#282 = CARTESIAN_POINT ( 'NONE',  ( 0.000000000000000000, 0.000000000000000000, 21.53691825000000293 ) ) ;
#283 = CIRCLE ( 'NONE', #121, 2.000000000000000000 ) ;
#284 = CC_DESIGN_PERSON_AND_ORGANIZATION_ASSIGNMENT ( #159, #59, ( #287 ) ) ;
#285 = CALENDAR_DATE ( 2021, 25, 10 ) ;
#286 = CARTESIAN_POINT ( 'NONE',  ( 2.000000000000000000, 0.000000000000000000, 19.00000000000000000 ) ) ;
#287 = PRODUCT_DEFINITION_FORMATION_WITH_SPECIFIED_SOURCE ( 'ANY', '', #403, .NOT_KNOWN. ) ;
#288 = DATE_TIME_ROLE ( 'creation_date' ) ;
#289 = ADVANCED_FACE ( 'NONE', ( #201 ), #255, .F. ) ;
#290 = CLOSED_SHELL ( 'NONE', ( #254, #374, #15, #364, #171, #177, #289, #393, #280, #194, #43, #65, #326 ) ) ;
#291 = DIRECTION ( 'NONE',  ( 0.000000000000000000, 0.000000000000000000, -1.000000000000000000 ) ) ;
#292 = CC_DESIGN_SECURITY_CLASSIFICATION ( #79, ( #287 ) ) ;
#293 = VERTEX_POINT ( 'NONE', #73 ) ;
#294 = CARTESIAN_POINT ( 'NONE',  ( 0.000000000000000000, 0.000000000000000000, 19.00000000000000000 ) ) ;
#295 = EDGE_LOOP ( 'NONE', ( #146, #116 ) ) ;
#296 = CC_DESIGN_DATE_AND_TIME_ASSIGNMENT ( #188, #334, ( #79 ) ) ;
#297 = AXIS2_PLACEMENT_3D ( 'NONE', #63, #26, #396 ) ;
#298 = DIRECTION ( 'NONE',  ( 0.000000000000000000, 0.000000000000000000, 1.000000000000000000 ) ) ;
#299 = EDGE_LOOP ( 'NONE', ( #144, #268, #11, #318 ) ) ;
#300 = CARTESIAN_POINT ( 'NONE',  ( 0.000000000000000000, 0.000000000000000000, 1.500000000000000000 ) ) ;
#301 = PERSON_AND_ORGANIZATION ( #311, #222 ) ;
#302 = DIRECTION ( 'NONE',  ( 0.000000000000000000, 0.000000000000000000, 1.000000000000000000 ) ) ;
#303 = SECURITY_CLASSIFICATION_LEVEL ( 'unclassified' ) ;
#304 = EDGE_LOOP ( 'NONE', ( #134, #331, #140, #378 ) ) ;
#305 = CIRCLE ( 'NONE', #48, 3.000000000170344627 ) ;
#306 = CARTESIAN_POINT ( 'NONE',  ( 6.000000000000000000, 0.000000000000000000, 31.06996153897794954 ) ) ;
#307 = DIRECTION ( 'NONE',  ( 0.000000000000000000, 0.000000000000000000, 1.000000000000000000 ) ) ;
#308 = COORDINATED_UNIVERSAL_TIME_OFFSET ( 9, 0, .AHEAD. ) ;
#309 = CC_DESIGN_PERSON_AND_ORGANIZATION_ASSIGNMENT ( #301, #272, ( #287 ) ) ;
#310 = CARTESIAN_POINT ( 'NONE',  ( 0.000000000000000000, 0.000000000000000000, 27.00000000000000000 ) ) ;
#311 = PERSON ( 'UNSPECIFIED', 'UNSPECIFIED', 'UNSPECIFIED', ('UNSPECIFIED'), ('UNSPECIFIED'), ('UNSPECIFIED') ) ;
#312 = CARTESIAN_POINT ( 'NONE',  ( -6.000000000000001776, 0.000000000000000000, 18.00000000000000000 ) ) ;
#313 = PERSON_AND_ORGANIZATION ( #311, #222 ) ;
#314 = CIRCLE ( 'NONE', #246, 5.133974999999999511 ) ;
#315 = CARTESIAN_POINT ( 'NONE',  ( 0.000000000000000000, 0.000000000000000000, 27.00000000000000000 ) ) ;
#316 = AXIS2_PLACEMENT_3D ( 'NONE', #400, #21, #84 ) ;
#317 = DATE_AND_TIME ( #130, #275 ) ;
#318 = ORIENTED_EDGE ( 'NONE', *, *, #156, .F. ) ;
#319 = EDGE_LOOP ( 'NONE', ( #187, #401, #327, #388 ) ) ;
#320 = CARTESIAN_POINT ( 'NONE',  ( 2.999999999799995098, 0.000000000000000000, 23.99999999982965093 ) ) ;
#321 = EDGE_LOOP ( 'NONE', ( #58, #253, #273, #47 ) ) ;
#322 = EDGE_CURVE ( 'NONE', #397, #394, #407, .T. ) ;
#323 = VECTOR ( 'NONE', #109, 1000.000000000000000 ) ;
#324 = DIRECTION ( 'NONE',  ( 0.000000000000000000, 0.000000000000000000, 1.000000000000000000 ) ) ;
#325 = ORIENTED_EDGE ( 'NONE', *, *, #361, .F. ) ;
#326 = ADVANCED_FACE ( 'NONE', ( #6 ), #5, .T. ) ;
#327 = ORIENTED_EDGE ( 'NONE', *, *, #110, .F. ) ;
#328 = CIRCLE ( 'NONE', #406, 6.000000000000000000 ) ;
#329 = CIRCLE ( 'NONE', #189, 2.000000000000000000 ) ;
#330 = PRODUCT_RELATED_PRODUCT_CATEGORY ( 'detail', '', ( #403 ) ) ;
#331 = ORIENTED_EDGE ( 'NONE', *, *, #384, .T. ) ;
#332 = DATE_AND_TIME ( #224, #69 ) ;
#333 = MANIFOLD_SOLID_BREP ( 'Imported1', #290 ) ;
#334 = DATE_TIME_ROLE ( 'classification_date' ) ;
#335 = AXIS2_PLACEMENT_3D ( 'NONE', #206, #143, #203 ) ;
#336 = APPROVAL_DATE_TIME ( #332, #125 ) ;
#337 = CARTESIAN_POINT ( 'NONE',  ( 4.712667011999999822, 5.771352571693121832E-16, 21.53691825000000293 ) ) ;
#338 = DESIGN_CONTEXT ( 'detailed design', #38, 'design' ) ;
#339 = EDGE_CURVE ( 'NONE', #232, #113, #261, .T. ) ;
#340 = DIRECTION ( 'NONE',  ( 1.000000000000000000, 0.000000000000000000, 0.000000000000000000 ) ) ;
#341 = CONICAL_SURFACE ( 'NONE', #196, 6.000000000000000000, 0.5235985737060560030 ) ;
#342 = AXIS2_PLACEMENT_3D ( 'NONE', #3, #51, #198 ) ;
#343 = CARTESIAN_POINT ( 'NONE',  ( -5.133974999999999511, 6.817593422768326094E-16, 0.000000000000000000 ) ) ;
#344 =( LENGTH_UNIT ( ) NAMED_UNIT ( * ) SI_UNIT ( .MILLI., .METRE. ) );
#345 = CARTESIAN_POINT ( 'NONE',  ( -2.000000000000000000, 2.449293598294706414E-16, 19.00000000000000000 ) ) ;
#346 = FACE_OUTER_BOUND ( 'NONE', #321, .T. ) ;
#347 = APPROVAL_STATUS ( 'not_yet_approved' ) ;
#348 = FACE_OUTER_BOUND ( 'NONE', #202, .T. ) ;
#349 = VERTEX_POINT ( 'NONE', #233 ) ;
#350 = CARTESIAN_POINT ( 'NONE',  ( 0.000000000000000000, 3.000000000000000000, 27.00000000000000000 ) ) ;
#351 = CC_DESIGN_PERSON_AND_ORGANIZATION_ASSIGNMENT ( #313, #131, ( #269 ) ) ;
#352 = CARTESIAN_POINT ( 'NONE',  ( -4.712667012000014033, 5.771352571693138596E-16, 21.53691825000000293 ) ) ;
#353 = ORIENTED_EDGE ( 'NONE', *, *, #223, .T. ) ;
#354 = DIRECTION ( 'NONE',  ( 1.000000000000000000, 0.000000000000000000, 0.000000000000000000 ) ) ;
#355 = VERTEX_POINT ( 'NONE', #352 ) ;
#356 = VECTOR ( 'NONE', #205, 1000.000000000000000 ) ;
#357 = APPROVAL_ROLE ( '' ) ;
#358 = ORIENTED_EDGE ( 'NONE', *, *, #398, .T. ) ;
#359 = CARTESIAN_POINT ( 'NONE',  ( 0.000000000000000000, 0.000000000000000000, 27.00000000000000000 ) ) ;
#360 = CYLINDRICAL_SURFACE ( 'NONE', #76, 6.000000000000000000 ) ;
#361 = EDGE_CURVE ( 'NONE', #232, #230, #329, .T. ) ;
#362 = ORIENTED_EDGE ( 'NONE', *, *, #249, .F. ) ;
#363 = CARTESIAN_POINT ( 'NONE',  ( 5.133974999999999511, 0.000000000000000000, 0.000000000000000000 ) ) ;
#364 = ADVANCED_FACE ( 'NONE', ( #151 ), #370, .T. ) ;
#365 = CYLINDRICAL_SURFACE ( 'NONE', #2, 6.000000000000000000 ) ;
#366 = ORIENTED_EDGE ( 'NONE', *, *, #110, .T. ) ;
#367 = CARTESIAN_POINT ( 'NONE',  ( 0.000000000000000000, 0.000000000000000000, 31.06996153897794954 ) ) ;
#368 = CARTESIAN_POINT ( 'NONE',  ( 0.000000000000000000, 0.000000000000000000, 21.53691825000000293 ) ) ;
#369 = SHAPE_DEFINITION_REPRESENTATION ( #71, #23 ) ;
#370 = TOROIDAL_SURFACE ( 'NONE', #316, 2.999999999799995098, 3.000000000170345071 ) ;
#371 = DIRECTION ( 'NONE',  ( 0.000000000000000000, 0.000000000000000000, 1.000000000000000000 ) ) ;
#372 = EDGE_CURVE ( 'NONE', #240, #209, #123, .T. ) ;
#373 = DIRECTION ( 'NONE',  ( 0.000000000000000000, 0.000000000000000000, -1.000000000000000000 ) ) ;
#374 = ADVANCED_FACE ( 'NONE', ( #89 ), #365, .T. ) ;
#375 = LOCAL_TIME ( 9, 28, 31.00000000000000000, #308 ) ;
#376 = DIRECTION ( 'NONE',  ( 1.000000000000000000, 0.000000000000000000, 0.000000000000000000 ) ) ;
#377 = EDGE_CURVE ( 'NONE', #13, #72, #158, .T. ) ;
#378 = ORIENTED_EDGE ( 'NONE', *, *, #117, .F. ) ;
#379 = CARTESIAN_POINT ( 'NONE',  ( 0.000000000000000000, 0.000000000000000000, 31.06996153897794954 ) ) ;
#380 = UNCERTAINTY_MEASURE_WITH_UNIT (LENGTH_MEASURE( 1.000000000000000082E-05 ), #344, 'distance_accuracy_value', 'NONE');
#381 = CIRCLE ( 'NONE', #215, 5.133974999999999511 ) ;
#382 = DIRECTION ( 'NONE',  ( -1.000000000000000000, 0.000000000000000000, 0.000000000000000000 ) ) ;
#383 = CIRCLE ( 'NONE', #342, 2.000000000000000000 ) ;
#384 = EDGE_CURVE ( 'NONE', #240, #72, #107, .T. ) ;
#385 = CARTESIAN_POINT ( 'NONE',  ( -2.000000000000000000, 2.449293598294706414E-16, 31.06996153897794954 ) ) ;
#386 = AXIS2_PLACEMENT_3D ( 'NONE', #368, #122, #218 ) ;
#387 = CARTESIAN_POINT ( 'NONE',  ( 0.000000000000000000, 0.000000000000000000, 1.500000000000000000 ) ) ;
#388 = ORIENTED_EDGE ( 'NONE', *, *, #377, .F. ) ;
#389 = APPROVAL_STATUS ( 'not_yet_approved' ) ;
#390 = CIRCLE ( 'NONE', #88, 4.712667011999999822 ) ;
#391 = DIRECTION ( 'NONE',  ( -1.000000000000000000, 1.224646799147353454E-16, 0.000000000000000000 ) ) ;
#392 = LOCAL_TIME ( 9, 28, 31.00000000000000000, #235 ) ;
#393 = ADVANCED_FACE ( 'NONE', ( #176, #260 ), #404, .T. ) ;
#394 = VERTEX_POINT ( 'NONE', #172 ) ;
#395 = ORIENTED_EDGE ( 'NONE', *, *, #223, .F. ) ;
#396 = DIRECTION ( 'NONE',  ( 1.000000000000000000, 0.000000000000000000, 0.000000000000000000 ) ) ;
#397 = VERTEX_POINT ( 'NONE', #227 ) ;
#398 = EDGE_CURVE ( 'NONE', #397, #355, #390, .T. ) ;
#399 = VECTOR ( 'NONE', #244, 1000.000000000000000 ) ;
#400 = CARTESIAN_POINT ( 'NONE',  ( 0.000000000000000000, 0.000000000000000000, 23.99999999982965093 ) ) ;
#401 = ORIENTED_EDGE ( 'NONE', *, *, #242, .T. ) ;
#402 = FACE_OUTER_BOUND ( 'NONE', #299, .T. ) ;
#403 = PRODUCT ( 'bj790-12001', 'bj790-12001', '', ( #211 ) ) ;
#404 = PLANE ( 'NONE',  #259 ) ;
#405 = DIRECTION ( 'NONE',  ( 1.000000000000000000, 0.000000000000000000, 0.000000000000000000 ) ) ;
#406 = AXIS2_PLACEMENT_3D ( 'NONE', #300, #18, #271 ) ;
#407 = CIRCLE ( 'NONE', #57, 3.000000000170345515 ) ;
ENDSEC;
END-ISO-10303-21;
