ISO-10303-21;
HEADER;
FILE_DESCRIPTION (( 'STEP AP203' ),
    '1' );
FILE_NAME ('bj712-16022.STEP',
    '2021-10-24T23:58:57',
    ( '' ),
    ( '' ),
    'SwSTEP 2.0',
    'SolidWorks 2020',
    '' );
FILE_SCHEMA (( 'CONFIG_CONTROL_DESIGN' ));
ENDSEC;

DATA;
#1 = CARTESIAN_POINT ( 'NONE',  ( 0.000000000000000000, 0.000000000000000000, 0.000000000000000000 ) ) ;
#2 = CARTESIAN_POINT ( 'NONE',  ( 11.00000000000000000, -8.000000000000000000, 10.00000000000000000 ) ) ;
#3 = FACE_OUTER_BOUND ( 'NONE', #198, .T. ) ;
#4 = CARTESIAN_POINT ( 'NONE',  ( 11.00000000000000000, -8.000000000000000000, 0.000000000000000000 ) ) ;
#5 = DIRECTION ( 'NONE',  ( 0.000000000000000000, 0.000000000000000000, 1.000000000000000000 ) ) ;
#6 = CARTESIAN_POINT ( 'NONE',  ( 11.00000000000000000, -8.000000000000000000, 10.00000000000000000 ) ) ;
#7 =( NAMED_UNIT ( * ) PLANE_ANGLE_UNIT ( ) SI_UNIT ( $, .RADIAN. ) );
#8 = EDGE_LOOP ( 'NONE', ( #339, #24, #320, #120 ) ) ;
#9 = EDGE_CURVE ( 'NONE', #61, #32, #269, .T. ) ;
#10 = ORIENTED_EDGE ( 'NONE', *, *, #360, .T. ) ;
#11 = VECTOR ( 'NONE', #153, 1000.000000000000000 ) ;
#12 = CARTESIAN_POINT ( 'NONE',  ( 0.000000000000000000, 0.000000000000000000, -1.734723475976804925E-15 ) ) ;
#13 = AXIS2_PLACEMENT_3D ( 'NONE', #126, #122, #95 ) ;
#14 = EDGE_CURVE ( 'NONE', #303, #240, #64, .T. ) ;
#15 = PERSON_AND_ORGANIZATION ( #177, #236 ) ;
#16 = ORIENTED_EDGE ( 'NONE', *, *, #279, .T. ) ;
#17 = DATE_AND_TIME ( #160, #31 ) ;
#18 = PERSON_AND_ORGANIZATION_ROLE ( 'classification_officer' ) ;
#19 = VECTOR ( 'NONE', #203, 1000.000000000000000 ) ;
#20 = CARTESIAN_POINT ( 'NONE',  ( -3.500000000000000000, 4.286263797015736595E-16, 3.500000000000000000 ) ) ;
#21 = LINE ( 'NONE', #350, #127 ) ;
#22 = APPROVAL ( #314, 'UNSPECIFIED' ) ;
#23 = DIRECTION ( 'NONE',  ( 1.000000000000000000, 0.000000000000000000, 0.000000000000000000 ) ) ;
#24 = ORIENTED_EDGE ( 'NONE', *, *, #36, .T. ) ;
#25 = ORIENTED_EDGE ( 'NONE', *, *, #9, .F. ) ;
#26 = DIRECTION ( 'NONE',  ( 1.084202172485503818E-16, 1.000000000000000000, 0.000000000000000000 ) ) ;
#27 = DIRECTION ( 'NONE',  ( 1.000000000000000000, 0.000000000000000000, 0.000000000000000000 ) ) ;
#28 = ADVANCED_FACE ( 'NONE', ( #243, #282 ), #169, .F. ) ;
#29 = EDGE_LOOP ( 'NONE', ( #368, #118, #91, #325 ) ) ;
#30 = CARTESIAN_POINT ( 'NONE',  ( 11.00000000000000000, 8.000000000000000000, 10.00000000000000000 ) ) ;
#31 = LOCAL_TIME ( 8, 58, 57.00000000000000000, #185 ) ;
#32 = VERTEX_POINT ( 'NONE', #20 ) ;
#33 = DIRECTION ( 'NONE',  ( 0.000000000000000000, 0.000000000000000000, -1.000000000000000000 ) ) ;
#34 = FACE_OUTER_BOUND ( 'NONE', #143, .T. ) ;
#35 = CARTESIAN_POINT ( 'NONE',  ( 11.00000000000000000, -8.000000000000000000, 10.00000000000000000 ) ) ;
#36 = EDGE_CURVE ( 'NONE', #249, #224, #21, .T. ) ;
#37 =( NAMED_UNIT ( * ) SI_UNIT ( $, .STERADIAN. ) SOLID_ANGLE_UNIT ( ) );
#38 = CC_DESIGN_DATE_AND_TIME_ASSIGNMENT ( #276, #196, ( #47 ) ) ;
#39 = VECTOR ( 'NONE', #66, 1000.000000000000000 ) ;
#40 = FACE_OUTER_BOUND ( 'NONE', #139, .T. ) ;
#41 = ORIENTED_EDGE ( 'NONE', *, *, #221, .F. ) ;
#42 = EDGE_CURVE ( 'NONE', #349, #189, #205, .T. ) ;
#43 =( LENGTH_UNIT ( ) NAMED_UNIT ( * ) SI_UNIT ( .MILLI., .METRE. ) );
#44 = ORIENTED_EDGE ( 'NONE', *, *, #36, .F. ) ;
#45 = PRODUCT_RELATED_PRODUCT_CATEGORY ( 'detail', '', ( #192 ) ) ;
#46 = PERSON_AND_ORGANIZATION ( #177, #236 ) ;
#47 = SECURITY_CLASSIFICATION ( '', '', #229 ) ;
#48 = PERSON_AND_ORGANIZATION ( #177, #236 ) ;
#49 = APPROVAL_DATE_TIME ( #142, #22 ) ;
#50 = VERTEX_POINT ( 'NONE', #319 ) ;
#51 = PERSON_AND_ORGANIZATION ( #177, #236 ) ;
#52 = DIRECTION ( 'NONE',  ( 0.000000000000000000, 0.000000000000000000, 1.000000000000000000 ) ) ;
#53 = VERTEX_POINT ( 'NONE', #267 ) ;
#54 = EDGE_CURVE ( 'NONE', #383, #224, #341, .T. ) ;
#55 = CARTESIAN_POINT ( 'NONE',  ( 11.00000000000000000, 8.000000000000000000, 10.00000000000000000 ) ) ;
#56 = CARTESIAN_POINT ( 'NONE',  ( -11.00000000000000000, -8.000000000000000000, 10.00000000000000000 ) ) ;
#57 = DIRECTION ( 'NONE',  ( 1.000000000000000000, 0.000000000000000000, 0.000000000000000000 ) ) ;
#58 = DIRECTION ( 'NONE',  ( 0.000000000000000000, 0.000000000000000000, 1.000000000000000000 ) ) ;
#59 = ORIENTED_EDGE ( 'NONE', *, *, #256, .F. ) ;
#60 = DIRECTION ( 'NONE',  ( 0.000000000000000000, 0.000000000000000000, -1.000000000000000000 ) ) ;
#61 = VERTEX_POINT ( 'NONE', #117 ) ;
#62 = CYLINDRICAL_SURFACE ( 'NONE', #371, 3.500000000000000000 ) ;
#63 = AXIS2_PLACEMENT_3D ( 'NONE', #239, #248, #268 ) ;
#64 = LINE ( 'NONE', #35, #191 ) ;
#65 = EDGE_CURVE ( 'NONE', #266, #303, #175, .T. ) ;
#66 = DIRECTION ( 'NONE',  ( 0.000000000000000000, 0.000000000000000000, 1.000000000000000000 ) ) ;
#67 = DIRECTION ( 'NONE',  ( -1.000000000000000000, 1.577021341797100025E-16, 0.000000000000000000 ) ) ;
#68 = CARTESIAN_POINT ( 'NONE',  ( -11.00000000000000000, 8.000000000000000000, 0.000000000000000000 ) ) ;
#69 = FACE_OUTER_BOUND ( 'NONE', #29, .T. ) ;
#70 = ADVANCED_FACE ( 'NONE', ( #3, #145 ), #252, .T. ) ;
#71 = FACE_OUTER_BOUND ( 'NONE', #147, .T. ) ;
#72 = CYLINDRICAL_SURFACE ( 'NONE', #63, 3.500000000000000000 ) ;
#73 = AXIS2_PLACEMENT_3D ( 'NONE', #344, #52, #363 ) ;
#74 = CC_DESIGN_PERSON_AND_ORGANIZATION_ASSIGNMENT ( #15, #18, ( #47 ) ) ;
#75 = DIRECTION ( 'NONE',  ( 0.000000000000000000, 0.000000000000000000, 1.000000000000000000 ) ) ;
#76 = MANIFOLD_SOLID_BREP ( 'Imported1', #154 ) ;
#77 = CC_DESIGN_APPROVAL ( #22, ( #47 ) ) ;
#78 = COORDINATED_UNIVERSAL_TIME_OFFSET ( 9, 0, .AHEAD. ) ;
#79 = DATE_AND_TIME ( #342, #166 ) ;
#80 = DIRECTION ( 'NONE',  ( 0.000000000000000000, 0.000000000000000000, 1.000000000000000000 ) ) ;
#81 = EDGE_CURVE ( 'NONE', #240, #121, #204, .T. ) ;
#82 = ORIENTED_EDGE ( 'NONE', *, *, #351, .T. ) ;
#83 = AXIS2_PLACEMENT_3D ( 'NONE', #148, #381, #114 ) ;
#84 = ORIENTED_EDGE ( 'NONE', *, *, #360, .F. ) ;
#85 = DIRECTION ( 'NONE',  ( 0.000000000000000000, 0.000000000000000000, 1.000000000000000000 ) ) ;
#86 = AXIS2_PLACEMENT_3D ( 'NONE', #226, #307, #57 ) ;
#87 = CIRCLE ( 'NONE', #218, 5.500000000000000000 ) ;
#88 = LINE ( 'NONE', #295, #346 ) ;
#89 = LINE ( 'NONE', #210, #232 ) ;
#90 = FACE_OUTER_BOUND ( 'NONE', #340, .T. ) ;
#91 = ORIENTED_EDGE ( 'NONE', *, *, #81, .T. ) ;
#92 = CARTESIAN_POINT ( 'NONE',  ( 5.500000000000000000, 0.000000000000000000, 10.00000000000000000 ) ) ;
#93 = DIRECTION ( 'NONE',  ( -1.084202172485503818E-16, -1.000000000000000000, 0.000000000000000000 ) ) ;
#94 = DIRECTION ( 'NONE',  ( 0.000000000000000000, 0.000000000000000000, -1.000000000000000000 ) ) ;
#95 = DIRECTION ( 'NONE',  ( 1.000000000000000000, 0.000000000000000000, 0.000000000000000000 ) ) ;
#96 = AXIS2_PLACEMENT_3D ( 'NONE', #2, #5, #353 ) ;
#97 = ADVANCED_FACE ( 'NONE', ( #40 ), #300, .F. ) ;
#98 = LINE ( 'NONE', #271, #195 ) ;
#99 = DIRECTION ( 'NONE',  ( 1.000000000000000000, 0.000000000000000000, 0.000000000000000000 ) ) ;
#100 = DIRECTION ( 'NONE',  ( 1.000000000000000000, 0.000000000000000000, 0.000000000000000000 ) ) ;
#101 = ORIENTED_EDGE ( 'NONE', *, *, #115, .T. ) ;
#102 = CC_DESIGN_APPROVAL ( #176, ( #332 ) ) ;
#103 = LINE ( 'NONE', #296, #385 ) ;
#104 = CALENDAR_DATE ( 2021, 25, 10 ) ;
#105 = EDGE_LOOP ( 'NONE', ( #206, #207 ) ) ;
#106 = CALENDAR_DATE ( 2021, 25, 10 ) ;
#107 = AXIS2_PLACEMENT_3D ( 'NONE', #172, #328, #146 ) ;
#108 = UNCERTAINTY_MEASURE_WITH_UNIT (LENGTH_MEASURE( 1.000000000000000082E-05 ), #43, 'distance_accuracy_value', 'NONE');
#109 = PERSON_AND_ORGANIZATION_ROLE ( 'creator' ) ;
#110 = EDGE_CURVE ( 'NONE', #50, #61, #215, .T. ) ;
#111 = CC_DESIGN_PERSON_AND_ORGANIZATION_ASSIGNMENT ( #46, #170, ( #332 ) ) ;
#112 = CARTESIAN_POINT ( 'NONE',  ( -5.500000000000000000, 6.735557395310442023E-16, 3.500000000000000000 ) ) ;
#113 = AXIS2_PLACEMENT_3D ( 'NONE', #168, #258, #361 ) ;
#114 = DIRECTION ( 'NONE',  ( 1.000000000000000000, 0.000000000000000000, 0.000000000000000000 ) ) ;
#115 = EDGE_CURVE ( 'NONE', #121, #287, #289, .T. ) ;
#116 = ORIENTED_EDGE ( 'NONE', *, *, #202, .T. ) ;
#117 = CARTESIAN_POINT ( 'NONE',  ( -3.500000000000000000, 4.286263797015736595E-16, -1.734723475976804925E-15 ) ) ;
#118 = ORIENTED_EDGE ( 'NONE', *, *, #14, .T. ) ;
#119 = APPROVAL_PERSON_ORGANIZATION ( #51, #176, #171 ) ;
#120 = ORIENTED_EDGE ( 'NONE', *, *, #259, .F. ) ;
#121 = VERTEX_POINT ( 'NONE', #384 ) ;
#122 = DIRECTION ( 'NONE',  ( 0.000000000000000000, 0.000000000000000000, 1.000000000000000000 ) ) ;
#123 = ORIENTED_EDGE ( 'NONE', *, *, #54, .T. ) ;
#124 = DIRECTION ( 'NONE',  ( 0.000000000000000000, 0.000000000000000000, 1.000000000000000000 ) ) ;
#125 = EDGE_LOOP ( 'NONE', ( #322, #273 ) ) ;
#126 = CARTESIAN_POINT ( 'NONE',  ( 0.000000000000000000, 0.000000000000000000, 10.00000000000000000 ) ) ;
#127 = VECTOR ( 'NONE', #85, 1000.000000000000000 ) ;
#128 = CARTESIAN_POINT ( 'NONE',  ( -3.500000000000000000, 4.286263797015736595E-16, 10.00000000000000000 ) ) ;
#129 = DIRECTION ( 'NONE',  ( 0.000000000000000000, 0.000000000000000000, 1.000000000000000000 ) ) ;
#130 = APPROVAL_PERSON_ORGANIZATION ( #329, #281, #242 ) ;
#131 = DIRECTION ( 'NONE',  ( 0.000000000000000000, 0.000000000000000000, 1.000000000000000000 ) ) ;
#132 = EDGE_CURVE ( 'NONE', #240, #189, #89, .T. ) ;
#133 = DIRECTION ( 'NONE',  ( -1.000000000000000000, 0.000000000000000000, 0.000000000000000000 ) ) ;
#134 = COORDINATED_UNIVERSAL_TIME_OFFSET ( 9, 0, .AHEAD. ) ;
#135 = ORIENTED_EDGE ( 'NONE', *, *, #132, .F. ) ;
#136 = CIRCLE ( 'NONE', #208, 3.500000000000000000 ) ;
#137 = DIRECTION ( 'NONE',  ( 1.000000000000000000, 0.000000000000000000, 0.000000000000000000 ) ) ;
#138 = APPROVAL_STATUS ( 'not_yet_approved' ) ;
#139 = EDGE_LOOP ( 'NONE', ( #135, #225, #116, #235 ) ) ;
#140 = EDGE_CURVE ( 'NONE', #293, #349, #263, .T. ) ;
#141 = ORIENTED_EDGE ( 'NONE', *, *, #65, .F. ) ;
#142 = DATE_AND_TIME ( #231, #200 ) ;
#143 = EDGE_LOOP ( 'NONE', ( #265, #141, #238, #159 ) ) ;
#144 = CC_DESIGN_PERSON_AND_ORGANIZATION_ASSIGNMENT ( #257, #109, ( #274 ) ) ;
#145 = FACE_BOUND ( 'NONE', #105, .T. ) ;
#146 = DIRECTION ( 'NONE',  ( 1.000000000000000000, 0.000000000000000000, 0.000000000000000000 ) ) ;
#147 = EDGE_LOOP ( 'NONE', ( #260, #155, #347, #59 ) ) ;
#148 = CARTESIAN_POINT ( 'NONE',  ( 0.000000000000000000, 0.000000000000000000, 10.00000000000000000 ) ) ;
#149 = LOCAL_TIME ( 8, 58, 57.00000000000000000, #78 ) ;
#150 = PLANE ( 'NONE',  #324 ) ;
#151 = EDGE_LOOP ( 'NONE', ( #285, #16 ) ) ;
#152 = ORIENTED_EDGE ( 'NONE', *, *, #313, .T. ) ;
#153 = DIRECTION ( 'NONE',  ( 0.000000000000000000, 0.000000000000000000, -1.000000000000000000 ) ) ;
#154 = CLOSED_SHELL ( 'NONE', ( #369, #377, #304, #382, #97, #209, #197, #28, #237, #70, #345 ) ) ;
#155 = ORIENTED_EDGE ( 'NONE', *, *, #9, .T. ) ;
#156 = AXIS2_PLACEMENT_3D ( 'NONE', #264, #58, #27 ) ;
#157 = DIRECTION ( 'NONE',  ( 1.000000000000000000, -1.577021341797100025E-16, 0.000000000000000000 ) ) ;
#158 = PLANE ( 'NONE',  #96 ) ;
#159 = ORIENTED_EDGE ( 'NONE', *, *, #140, .T. ) ;
#160 = CALENDAR_DATE ( 2021, 25, 10 ) ;
#161 = FACE_BOUND ( 'NONE', #125, .T. ) ;
#162 = CARTESIAN_POINT ( 'NONE',  ( 5.500000000000000000, 0.000000000000000000, 10.00000000000000000 ) ) ;
#163 = VECTOR ( 'NONE', #93, 1000.000000000000000 ) ;
#164 = CARTESIAN_POINT ( 'NONE',  ( 0.000000000000000000, 0.000000000000000000, 10.00000000000000000 ) ) ;
#165 = PERSON_AND_ORGANIZATION_ROLE ( 'creator' ) ;
#166 = LOCAL_TIME ( 8, 58, 57.00000000000000000, #134 ) ;
#167 = EDGE_LOOP ( 'NONE', ( #25, #312, #297, #152 ) ) ;
#168 = CARTESIAN_POINT ( 'NONE',  ( 0.000000000000000000, 0.000000000000000000, -1.734723475976804925E-15 ) ) ;
#169 = PLANE ( 'NONE',  #241 ) ;
#170 = PERSON_AND_ORGANIZATION_ROLE ( 'design_supplier' ) ;
#171 = APPROVAL_ROLE ( '' ) ;
#172 = CARTESIAN_POINT ( 'NONE',  ( 0.000000000000000000, 0.000000000000000000, 3.500000000000000000 ) ) ;
#173 = VECTOR ( 'NONE', #178, 1000.000000000000000 ) ;
#174 = EDGE_LOOP ( 'NONE', ( #180, #101, #356, #41 ) ) ;
#175 = LINE ( 'NONE', #286, #309 ) ;
#176 = APPROVAL ( #138, 'UNSPECIFIED' ) ;
#177 = PERSON ( 'UNSPECIFIED', 'UNSPECIFIED', 'UNSPECIFIED', ('UNSPECIFIED'), ('UNSPECIFIED'), ('UNSPECIFIED') ) ;
#178 = DIRECTION ( 'NONE',  ( 0.000000000000000000, 1.000000000000000000, 0.000000000000000000 ) ) ;
#179 = CC_DESIGN_PERSON_AND_ORGANIZATION_ASSIGNMENT ( #194, #165, ( #332 ) ) ;
#180 = ORIENTED_EDGE ( 'NONE', *, *, #288, .F. ) ;
#181 = AXIS2_PLACEMENT_3D ( 'NONE', #12, #333, #137 ) ;
#182 = ORIENTED_EDGE ( 'NONE', *, *, #219, .T. ) ;
#183 = APPROVAL_STATUS ( 'not_yet_approved' ) ;
#184 = CYLINDRICAL_SURFACE ( 'NONE', #73, 5.500000000000000000 ) ;
#185 = COORDINATED_UNIVERSAL_TIME_OFFSET ( 9, 0, .AHEAD. ) ;
#186 = DIRECTION ( 'NONE',  ( 0.000000000000000000, 1.000000000000000000, 0.000000000000000000 ) ) ;
#187 = PLANE ( 'NONE',  #301 ) ;
#188 = EDGE_CURVE ( 'NONE', #32, #323, #365, .T. ) ;
#189 = VERTEX_POINT ( 'NONE', #348 ) ;
#190 = DIRECTION ( 'NONE',  ( 1.000000000000000000, 0.000000000000000000, 0.000000000000000000 ) ) ;
#191 = VECTOR ( 'NONE', #391, 1000.000000000000000 ) ;
#192 = PRODUCT ( 'bj712-16022', 'bj712-16022', '', ( #337 ) ) ;
#193 = EDGE_CURVE ( 'NONE', #224, #383, #251, .T. ) ;
#194 = PERSON_AND_ORGANIZATION ( #177, #236 ) ;
#195 = VECTOR ( 'NONE', #67, 1000.000000000000000 ) ;
#196 = DATE_TIME_ROLE ( 'classification_date' ) ;
#197 = ADVANCED_FACE ( 'NONE', ( #234 ), #150, .F. ) ;
#198 = EDGE_LOOP ( 'NONE', ( #182, #82 ) ) ;
#199 = EDGE_LOOP ( 'NONE', ( #44, #387, #201, #123 ) ) ;
#200 = LOCAL_TIME ( 8, 58, 57.00000000000000000, #338 ) ;
#201 = ORIENTED_EDGE ( 'NONE', *, *, #259, .T. ) ;
#202 = EDGE_CURVE ( 'NONE', #303, #349, #290, .T. ) ;
#203 = DIRECTION ( 'NONE',  ( 1.000000000000000000, 0.000000000000000000, 0.000000000000000000 ) ) ;
#204 = LINE ( 'NONE', #55, #370 ) ;
#205 = LINE ( 'NONE', #327, #173 ) ;
#206 = ORIENTED_EDGE ( 'NONE', *, *, #313, .F. ) ;
#207 = ORIENTED_EDGE ( 'NONE', *, *, #188, .F. ) ;
#208 = AXIS2_PLACEMENT_3D ( 'NONE', #366, #131, #334 ) ;
#209 = ADVANCED_FACE ( 'NONE', ( #90 ), #212, .F. ) ;
#210 = CARTESIAN_POINT ( 'NONE',  ( 11.00000000000000000, 8.000000000000000000, 10.00000000000000000 ) ) ;
#211 = ORIENTED_EDGE ( 'NONE', *, *, #140, .F. ) ;
#212 = PLANE ( 'NONE',  #233 ) ;
#213 = PERSON_AND_ORGANIZATION ( #177, #236 ) ;
#214 = CARTESIAN_POINT ( 'NONE',  ( -11.00000000000000000, -8.000000000000000000, 0.000000000000000000 ) ) ;
#215 = CIRCLE ( 'NONE', #181, 3.500000000000000000 ) ;
#216 = CARTESIAN_POINT ( 'NONE',  ( -5.500000000000000000, 6.735557395310442023E-16, 10.00000000000000000 ) ) ;
#217 = APPLICATION_PROTOCOL_DEFINITION ( 'international standard', 'config_control_design', 1994, #255 ) ;
#218 = AXIS2_PLACEMENT_3D ( 'NONE', #389, #124, #190 ) ;
#219 = EDGE_CURVE ( 'NONE', #53, #249, #87, .T. ) ;
#220 = DIRECTION ( 'NONE',  ( 0.000000000000000000, 0.000000000000000000, 1.000000000000000000 ) ) ;
#221 = EDGE_CURVE ( 'NONE', #266, #293, #299, .T. ) ;
#222 = FACE_OUTER_BOUND ( 'NONE', #8, .T. ) ;
#223 = CARTESIAN_POINT ( 'NONE',  ( -11.00000000000000000, -8.000000000000000000, 10.00000000000000000 ) ) ;
#224 = VERTEX_POINT ( 'NONE', #216 ) ;
#225 = ORIENTED_EDGE ( 'NONE', *, *, #14, .F. ) ;
#226 = CARTESIAN_POINT ( 'NONE',  ( 3.500000000000000000, 0.000000000000000000, 3.500000000000000000 ) ) ;
#227 = DATE_TIME_ROLE ( 'creation_date' ) ;
#228 = ADVANCED_BREP_SHAPE_REPRESENTATION ( 'bj712-16022', ( #76, #277 ), #375 ) ;
#229 = SECURITY_CLASSIFICATION_LEVEL ( 'unclassified' ) ;
#230 = CARTESIAN_POINT ( 'NONE',  ( 11.00000000000000000, -8.000000000000000000, 0.000000000000000000 ) ) ;
#231 = CALENDAR_DATE ( 2021, 25, 10 ) ;
#232 = VECTOR ( 'NONE', #60, 1000.000000000000000 ) ;
#233 = AXIS2_PLACEMENT_3D ( 'NONE', #30, #326, #157 ) ;
#234 = FACE_OUTER_BOUND ( 'NONE', #174, .T. ) ;
#235 = ORIENTED_EDGE ( 'NONE', *, *, #42, .T. ) ;
#236 = ORGANIZATION ( 'UNSPECIFIED', 'UNSPECIFIED', '' ) ;
#237 = ADVANCED_FACE ( 'NONE', ( #331 ), #184, .F. ) ;
#238 = ORIENTED_EDGE ( 'NONE', *, *, #221, .T. ) ;
#239 = CARTESIAN_POINT ( 'NONE',  ( 0.000000000000000000, 0.000000000000000000, 10.00000000000000000 ) ) ;
#240 = VERTEX_POINT ( 'NONE', #315 ) ;
#241 = AXIS2_PLACEMENT_3D ( 'NONE', #230, #80, #316 ) ;
#242 = APPROVAL_ROLE ( '' ) ;
#243 = FACE_BOUND ( 'NONE', #151, .T. ) ;
#244 = CARTESIAN_POINT ( 'NONE',  ( 11.00000000000000000, -8.000000000000000000, 10.00000000000000000 ) ) ;
#245 = DIRECTION ( 'NONE',  ( 1.000000000000000000, 0.000000000000000000, 0.000000000000000000 ) ) ;
#246 = APPROVAL_PERSON_ORGANIZATION ( #48, #22, #308 ) ;
#247 = CC_DESIGN_PERSON_AND_ORGANIZATION_ASSIGNMENT ( #213, #294, ( #192 ) ) ;
#248 = DIRECTION ( 'NONE',  ( 0.000000000000000000, 0.000000000000000000, 1.000000000000000000 ) ) ;
#249 = VERTEX_POINT ( 'NONE', #112 ) ;
#250 = CC_DESIGN_DATE_AND_TIME_ASSIGNMENT ( #374, #227, ( #274 ) ) ;
#251 = CIRCLE ( 'NONE', #83, 5.500000000000000000 ) ;
#252 = PLANE ( 'NONE',  #86 ) ;
#253 = LINE ( 'NONE', #283, #163 ) ;
#254 = APPROVAL_DATE_TIME ( #79, #176 ) ;
#255 = APPLICATION_CONTEXT ( 'configuration controlled 3d designs of mechanical parts and assemblies' ) ;
#256 = EDGE_CURVE ( 'NONE', #50, #323, #103, .T. ) ;
#257 = PERSON_AND_ORGANIZATION ( #177, #236 ) ;
#258 = DIRECTION ( 'NONE',  ( 0.000000000000000000, 0.000000000000000000, 1.000000000000000000 ) ) ;
#259 = EDGE_CURVE ( 'NONE', #53, #383, #355, .T. ) ;
#260 = ORIENTED_EDGE ( 'NONE', *, *, #279, .F. ) ;
#261 = DIRECTION ( 'NONE',  ( -1.000000000000000000, 1.577021341797100025E-16, 0.000000000000000000 ) ) ;
#262 = CARTESIAN_POINT ( 'NONE',  ( 11.00000000000000000, -8.000000000000000000, 10.00000000000000000 ) ) ;
#263 = LINE ( 'NONE', #357, #19 ) ;
#264 = CARTESIAN_POINT ( 'NONE',  ( 0.000000000000000000, 0.000000000000000000, 10.00000000000000000 ) ) ;
#265 = ORIENTED_EDGE ( 'NONE', *, *, #202, .F. ) ;
#266 = VERTEX_POINT ( 'NONE', #56 ) ;
#267 = CARTESIAN_POINT ( 'NONE',  ( 5.500000000000000000, 0.000000000000000000, 3.500000000000000000 ) ) ;
#268 = DIRECTION ( 'NONE',  ( 1.000000000000000000, 0.000000000000000000, 0.000000000000000000 ) ) ;
#269 = LINE ( 'NONE', #128, #362 ) ;
#270 = APPLICATION_PROTOCOL_DEFINITION ( 'international standard', 'config_control_design', 1994, #373 ) ;
#271 = CARTESIAN_POINT ( 'NONE',  ( 11.00000000000000000, 8.000000000000000000, 0.000000000000000000 ) ) ;
#272 = DIRECTION ( 'NONE',  ( -1.084202172485503818E-16, -1.000000000000000000, 0.000000000000000000 ) ) ;
#273 = ORIENTED_EDGE ( 'NONE', *, *, #193, .F. ) ;
#274 = PRODUCT_DEFINITION ( 'UNKNOWN', '', #332, #378 ) ;
#275 = DIRECTION ( 'NONE',  ( 0.000000000000000000, 0.000000000000000000, 1.000000000000000000 ) ) ;
#276 = DATE_AND_TIME ( #104, #149 ) ;
#277 = AXIS2_PLACEMENT_3D ( 'NONE', #1, #129, #100 ) ;
#278 = APPROVAL_DATE_TIME ( #17, #281 ) ;
#279 = EDGE_CURVE ( 'NONE', #61, #50, #311, .T. ) ;
#280 = ORIENTED_EDGE ( 'NONE', *, *, #81, .F. ) ;
#281 = APPROVAL ( #183, 'UNSPECIFIED' ) ;
#282 = FACE_OUTER_BOUND ( 'NONE', #388, .T. ) ;
#283 = CARTESIAN_POINT ( 'NONE',  ( -11.00000000000000000, 8.000000000000000000, 10.00000000000000000 ) ) ;
#284 = AXIS2_PLACEMENT_3D ( 'NONE', #359, #220, #245 ) ;
#285 = ORIENTED_EDGE ( 'NONE', *, *, #110, .T. ) ;
#286 = CARTESIAN_POINT ( 'NONE',  ( -11.00000000000000000, -8.000000000000000000, 10.00000000000000000 ) ) ;
#287 = VERTEX_POINT ( 'NONE', #68 ) ;
#288 = EDGE_CURVE ( 'NONE', #121, #266, #253, .T. ) ;
#289 = LINE ( 'NONE', #386, #11 ) ;
#290 = LINE ( 'NONE', #262, #380 ) ;
#291 = AXIS2_PLACEMENT_3D ( 'NONE', #6, #133, #75 ) ;
#292 = VECTOR ( 'NONE', #94, 1000.000000000000000 ) ;
#293 = VERTEX_POINT ( 'NONE', #214 ) ;
#294 = PERSON_AND_ORGANIZATION_ROLE ( 'design_owner' ) ;
#295 = CARTESIAN_POINT ( 'NONE',  ( -11.00000000000000000, 8.000000000000000000, 0.000000000000000000 ) ) ;
#296 = CARTESIAN_POINT ( 'NONE',  ( 3.500000000000000000, 0.000000000000000000, 10.00000000000000000 ) ) ;
#297 = ORIENTED_EDGE ( 'NONE', *, *, #256, .T. ) ;
#298 = FACE_OUTER_BOUND ( 'NONE', #167, .T. ) ;
#299 = LINE ( 'NONE', #223, #292 ) ;
#300 = PLANE ( 'NONE',  #291 ) ;
#301 = AXIS2_PLACEMENT_3D ( 'NONE', #302, #186, #275 ) ;
#302 = CARTESIAN_POINT ( 'NONE',  ( -11.00000000000000000, -8.000000000000000000, 10.00000000000000000 ) ) ;
#303 = VERTEX_POINT ( 'NONE', #244 ) ;
#304 = ADVANCED_FACE ( 'NONE', ( #69, #161 ), #158, .T. ) ;
#305 = CARTESIAN_POINT ( 'NONE',  ( 3.500000000000000000, 0.000000000000000000, 3.500000000000000000 ) ) ;
#306 = ORIENTED_EDGE ( 'NONE', *, *, #42, .F. ) ;
#307 = DIRECTION ( 'NONE',  ( 0.000000000000000000, 0.000000000000000000, 1.000000000000000000 ) ) ;
#308 = APPROVAL_ROLE ( '' ) ;
#309 = VECTOR ( 'NONE', #23, 1000.000000000000000 ) ;
#310 = EDGE_CURVE ( 'NONE', #287, #293, #88, .T. ) ;
#311 = CIRCLE ( 'NONE', #113, 3.500000000000000000 ) ;
#312 = ORIENTED_EDGE ( 'NONE', *, *, #110, .F. ) ;
#313 = EDGE_CURVE ( 'NONE', #323, #32, #136, .T. ) ;
#314 = APPROVAL_STATUS ( 'not_yet_approved' ) ;
#315 = CARTESIAN_POINT ( 'NONE',  ( 11.00000000000000000, 8.000000000000000000, 10.00000000000000000 ) ) ;
#316 = DIRECTION ( 'NONE',  ( 1.000000000000000000, 0.000000000000000000, 0.000000000000000000 ) ) ;
#317 = CC_DESIGN_APPROVAL ( #281, ( #274 ) ) ;
#318 = PRODUCT_DEFINITION_SHAPE ( 'NONE', 'NONE',  #274 ) ;
#319 = CARTESIAN_POINT ( 'NONE',  ( 3.500000000000000000, 0.000000000000000000, -1.734723475976804925E-15 ) ) ;
#320 = ORIENTED_EDGE ( 'NONE', *, *, #193, .T. ) ;
#321 = DIRECTION ( 'NONE',  ( 1.000000000000000000, -1.084202172485503818E-16, 0.000000000000000000 ) ) ;
#322 = ORIENTED_EDGE ( 'NONE', *, *, #54, .F. ) ;
#323 = VERTEX_POINT ( 'NONE', #305 ) ;
#324 = AXIS2_PLACEMENT_3D ( 'NONE', #352, #321, #26 ) ;
#325 = ORIENTED_EDGE ( 'NONE', *, *, #288, .T. ) ;
#326 = DIRECTION ( 'NONE',  ( -1.577021341797100025E-16, -1.000000000000000000, 0.000000000000000000 ) ) ;
#327 = CARTESIAN_POINT ( 'NONE',  ( 11.00000000000000000, -8.000000000000000000, 0.000000000000000000 ) ) ;
#328 = DIRECTION ( 'NONE',  ( 0.000000000000000000, 0.000000000000000000, 1.000000000000000000 ) ) ;
#329 = PERSON_AND_ORGANIZATION ( #177, #236 ) ;
#330 = ORIENTED_EDGE ( 'NONE', *, *, #132, .T. ) ;
#331 = FACE_OUTER_BOUND ( 'NONE', #199, .T. ) ;
#332 = PRODUCT_DEFINITION_FORMATION_WITH_SPECIFIED_SOURCE ( 'ANY', '', #192, .NOT_KNOWN. ) ;
#333 = DIRECTION ( 'NONE',  ( 0.000000000000000000, 0.000000000000000000, 1.000000000000000000 ) ) ;
#334 = DIRECTION ( 'NONE',  ( 1.000000000000000000, 0.000000000000000000, 0.000000000000000000 ) ) ;
#335 = CYLINDRICAL_SURFACE ( 'NONE', #13, 5.500000000000000000 ) ;
#336 = CC_DESIGN_SECURITY_CLASSIFICATION ( #47, ( #332 ) ) ;
#337 = MECHANICAL_CONTEXT ( 'NONE', #255, 'mechanical' ) ;
#338 = COORDINATED_UNIVERSAL_TIME_OFFSET ( 9, 0, .AHEAD. ) ;
#339 = ORIENTED_EDGE ( 'NONE', *, *, #351, .F. ) ;
#340 = EDGE_LOOP ( 'NONE', ( #358, #280, #330, #10 ) ) ;
#341 = CIRCLE ( 'NONE', #156, 5.500000000000000000 ) ;
#342 = CALENDAR_DATE ( 2021, 25, 10 ) ;
#343 = SHAPE_DEFINITION_REPRESENTATION ( #318, #228 ) ;
#344 = CARTESIAN_POINT ( 'NONE',  ( 0.000000000000000000, 0.000000000000000000, 10.00000000000000000 ) ) ;
#345 = ADVANCED_FACE ( 'NONE', ( #298 ), #72, .F. ) ;
#346 = VECTOR ( 'NONE', #272, 1000.000000000000000 ) ;
#347 = ORIENTED_EDGE ( 'NONE', *, *, #188, .T. ) ;
#348 = CARTESIAN_POINT ( 'NONE',  ( 11.00000000000000000, 8.000000000000000000, 0.000000000000000000 ) ) ;
#349 = VERTEX_POINT ( 'NONE', #4 ) ;
#350 = CARTESIAN_POINT ( 'NONE',  ( -5.500000000000000000, 6.735557395310442023E-16, 10.00000000000000000 ) ) ;
#351 = EDGE_CURVE ( 'NONE', #249, #53, #376, .T. ) ;
#352 = CARTESIAN_POINT ( 'NONE',  ( -11.00000000000000000, 8.000000000000000000, 10.00000000000000000 ) ) ;
#353 = DIRECTION ( 'NONE',  ( 1.000000000000000000, 0.000000000000000000, 0.000000000000000000 ) ) ;
#354 = LOCAL_TIME ( 8, 58, 57.00000000000000000, #372 ) ;
#355 = LINE ( 'NONE', #92, #39 ) ;
#356 = ORIENTED_EDGE ( 'NONE', *, *, #310, .T. ) ;
#357 = CARTESIAN_POINT ( 'NONE',  ( -11.00000000000000000, -8.000000000000000000, 0.000000000000000000 ) ) ;
#358 = ORIENTED_EDGE ( 'NONE', *, *, #115, .F. ) ;
#359 = CARTESIAN_POINT ( 'NONE',  ( 0.000000000000000000, 0.000000000000000000, 3.500000000000000000 ) ) ;
#360 = EDGE_CURVE ( 'NONE', #189, #287, #98, .T. ) ;
#361 = DIRECTION ( 'NONE',  ( 1.000000000000000000, 0.000000000000000000, 0.000000000000000000 ) ) ;
#362 = VECTOR ( 'NONE', #364, 1000.000000000000000 ) ;
#363 = DIRECTION ( 'NONE',  ( 1.000000000000000000, 0.000000000000000000, 0.000000000000000000 ) ) ;
#364 = DIRECTION ( 'NONE',  ( 0.000000000000000000, 0.000000000000000000, 1.000000000000000000 ) ) ;
#365 = CIRCLE ( 'NONE', #107, 3.500000000000000000 ) ;
#366 = CARTESIAN_POINT ( 'NONE',  ( 0.000000000000000000, 0.000000000000000000, 3.500000000000000000 ) ) ;
#367 = DIRECTION ( 'NONE',  ( 0.000000000000000000, 0.000000000000000000, 1.000000000000000000 ) ) ;
#368 = ORIENTED_EDGE ( 'NONE', *, *, #65, .T. ) ;
#369 = ADVANCED_FACE ( 'NONE', ( #71 ), #62, .F. ) ;
#370 = VECTOR ( 'NONE', #261, 1000.000000000000000 ) ;
#371 = AXIS2_PLACEMENT_3D ( 'NONE', #164, #367, #99 ) ;
#372 = COORDINATED_UNIVERSAL_TIME_OFFSET ( 9, 0, .AHEAD. ) ;
#373 = APPLICATION_CONTEXT ( 'configuration controlled 3d designs of mechanical parts and assemblies' ) ;
#374 = DATE_AND_TIME ( #106, #354 ) ;
#375 =( GEOMETRIC_REPRESENTATION_CONTEXT ( 3 ) GLOBAL_UNCERTAINTY_ASSIGNED_CONTEXT ( ( #108 ) ) GLOBAL_UNIT_ASSIGNED_CONTEXT ( ( #43, #7, #37 ) ) REPRESENTATION_CONTEXT ( 'NONE', 'WORKASPACE' ) );
#376 = CIRCLE ( 'NONE', #284, 5.500000000000000000 ) ;
#377 = ADVANCED_FACE ( 'NONE', ( #222 ), #335, .F. ) ;
#378 = DESIGN_CONTEXT ( 'detailed design', #373, 'design' ) ;
#379 = ORIENTED_EDGE ( 'NONE', *, *, #310, .F. ) ;
#380 = VECTOR ( 'NONE', #33, 1000.000000000000000 ) ;
#381 = DIRECTION ( 'NONE',  ( 0.000000000000000000, 0.000000000000000000, 1.000000000000000000 ) ) ;
#382 = ADVANCED_FACE ( 'NONE', ( #34 ), #187, .F. ) ;
#383 = VERTEX_POINT ( 'NONE', #162 ) ;
#384 = CARTESIAN_POINT ( 'NONE',  ( -11.00000000000000000, 8.000000000000000000, 10.00000000000000000 ) ) ;
#385 = VECTOR ( 'NONE', #390, 1000.000000000000000 ) ;
#386 = CARTESIAN_POINT ( 'NONE',  ( -11.00000000000000000, 8.000000000000000000, 10.00000000000000000 ) ) ;
#387 = ORIENTED_EDGE ( 'NONE', *, *, #219, .F. ) ;
#388 = EDGE_LOOP ( 'NONE', ( #211, #379, #84, #306 ) ) ;
#389 = CARTESIAN_POINT ( 'NONE',  ( 0.000000000000000000, 0.000000000000000000, 3.500000000000000000 ) ) ;
#390 = DIRECTION ( 'NONE',  ( 0.000000000000000000, 0.000000000000000000, 1.000000000000000000 ) ) ;
#391 = DIRECTION ( 'NONE',  ( 0.000000000000000000, 1.000000000000000000, 0.000000000000000000 ) ) ;
ENDSEC;
END-ISO-10303-21;
