ISO-10303-21;
HEADER;
FILE_DESCRIPTION (( 'STEP AP203' ),
    '1' );
FILE_NAME ('bj623-16003.STEP',
    '2021-10-24T23:57:48',
    ( '' ),
    ( '' ),
    'SwSTEP 2.0',
    'SolidWorks 2020',
    '' );
FILE_SCHEMA (( 'CONFIG_CONTROL_DESIGN' ));
ENDSEC;

DATA;
#1 = ORIENTED_EDGE ( 'NONE', *, *, #158, .F. ) ;
#2 = DIRECTION ( 'NONE',  ( -1.000000000000000000, 0.000000000000000000, 0.000000000000000000 ) ) ;
#3 = DIRECTION ( 'NONE',  ( 0.000000000000000000, 0.000000000000000000, 1.000000000000000000 ) ) ;
#4 = COORDINATED_UNIVERSAL_TIME_OFFSET ( 9, 0, .AHEAD. ) ;
#5 = DIRECTION ( 'NONE',  ( 0.000000000000000000, 0.000000000000000000, -1.000000000000000000 ) ) ;
#6 = DIRECTION ( 'NONE',  ( 1.000000000000000000, 0.000000000000000000, 0.000000000000000000 ) ) ;
#7 = ORIENTED_EDGE ( 'NONE', *, *, #218, .F. ) ;
#8 = DIRECTION ( 'NONE',  ( 0.000000000000000000, 0.000000000000000000, -1.000000000000000000 ) ) ;
#9 = CC_DESIGN_SECURITY_CLASSIFICATION ( #68, ( #160 ) ) ;
#10 = COORDINATED_UNIVERSAL_TIME_OFFSET ( 9, 0, .AHEAD. ) ;
#11 = CALENDAR_DATE ( 2021, 25, 10 ) ;
#12 = VERTEX_POINT ( 'NONE', #215 ) ;
#13 = CYLINDRICAL_SURFACE ( 'NONE', #60, 25.00000000000000000 ) ;
#14 = CARTESIAN_POINT ( 'NONE',  ( 0.000000000000000000, 0.000000000000000000, 10.00000000000000000 ) ) ;
#15 = CARTESIAN_POINT ( 'NONE',  ( 0.000000000000000000, 0.000000000000000000, 10.00000000000000000 ) ) ;
#16 = DIRECTION ( 'NONE',  ( 0.000000000000000000, 0.000000000000000000, 1.000000000000000000 ) ) ;
#17 = CALENDAR_DATE ( 2021, 25, 10 ) ;
#18 = APPROVAL_ROLE ( '' ) ;
#19 = DIRECTION ( 'NONE',  ( 1.000000000000000000, 0.000000000000000000, 0.000000000000000000 ) ) ;
#20 = PERSON_AND_ORGANIZATION ( #229, #124 ) ;
#21 = DIRECTION ( 'NONE',  ( -1.000000000000000000, 0.000000000000000000, 0.000000000000000000 ) ) ;
#22 = AXIS2_PLACEMENT_3D ( 'NONE', #138, #226, #178 ) ;
#23 = APPROVAL ( #201, 'UNSPECIFIED' ) ;
#24 = FACE_OUTER_BOUND ( 'NONE', #204, .T. ) ;
#25 = LOCAL_TIME ( 8, 57, 48.00000000000000000, #225 ) ;
#26 =( LENGTH_UNIT ( ) NAMED_UNIT ( * ) SI_UNIT ( .MILLI., .METRE. ) );
#27 = EDGE_CURVE ( 'NONE', #216, #12, #205, .T. ) ;
#28 = CARTESIAN_POINT ( 'NONE',  ( 0.000000000000000000, 0.000000000000000000, 10.00000000000000000 ) ) ;
#29 = AXIS2_PLACEMENT_3D ( 'NONE', #214, #200, #6 ) ;
#30 = CC_DESIGN_APPROVAL ( #23, ( #53 ) ) ;
#31 = DIRECTION ( 'NONE',  ( 0.000000000000000000, 0.000000000000000000, -1.000000000000000000 ) ) ;
#32 = ADVANCED_FACE ( 'NONE', ( #172 ), #13, .T. ) ;
#33 = DIRECTION ( 'NONE',  ( 1.000000000000000000, 0.000000000000000000, 0.000000000000000000 ) ) ;
#34 = CC_DESIGN_APPROVAL ( #118, ( #68 ) ) ;
#35 = EDGE_LOOP ( 'NONE', ( #67, #112, #69, #203 ) ) ;
#36 = PERSON_AND_ORGANIZATION ( #229, #124 ) ;
#37 = EDGE_LOOP ( 'NONE', ( #111, #50, #49, #151 ) ) ;
#38 = CIRCLE ( 'NONE', #194, 8.500000000000000000 ) ;
#39 = APPROVAL_DATE_TIME ( #211, #23 ) ;
#40 = CC_DESIGN_PERSON_AND_ORGANIZATION_ASSIGNMENT ( #249, #64, ( #241 ) ) ;
#41 = DIRECTION ( 'NONE',  ( 1.000000000000000000, 0.000000000000000000, 0.000000000000000000 ) ) ;
#42 = CARTESIAN_POINT ( 'NONE',  ( 8.500000000000000000, 1.040949779275250140E-15, 0.000000000000000000 ) ) ;
#43 = PRODUCT_DEFINITION_SHAPE ( 'NONE', 'NONE',  #53 ) ;
#44 = DIRECTION ( 'NONE',  ( 1.000000000000000000, 0.000000000000000000, 0.000000000000000000 ) ) ;
#45 = AXIS2_PLACEMENT_3D ( 'NONE', #179, #245, #223 ) ;
#46 = APPROVAL_PERSON_ORGANIZATION ( #36, #118, #230 ) ;
#47 = PERSON_AND_ORGANIZATION_ROLE ( 'creator' ) ;
#48 = APPLICATION_CONTEXT ( 'configuration controlled 3d designs of mechanical parts and assemblies' ) ;
#49 = ORIENTED_EDGE ( 'NONE', *, *, #175, .T. ) ;
#50 = ORIENTED_EDGE ( 'NONE', *, *, #27, .F. ) ;
#51 = VERTEX_POINT ( 'NONE', #75 ) ;
#52 = FACE_OUTER_BOUND ( 'NONE', #120, .T. ) ;
#53 = PRODUCT_DEFINITION ( 'UNKNOWN', '', #160, #83 ) ;
#54 = CARTESIAN_POINT ( 'NONE',  ( 0.000000000000000000, 0.000000000000000000, 10.00000000000000000 ) ) ;
#55 = DIRECTION ( 'NONE',  ( 0.000000000000000000, 0.000000000000000000, 1.000000000000000000 ) ) ;
#56 = ORIENTED_EDGE ( 'NONE', *, *, #139, .T. ) ;
#57 = DIRECTION ( 'NONE',  ( 0.000000000000000000, 0.000000000000000000, 1.000000000000000000 ) ) ;
#58 = DIRECTION ( 'NONE',  ( 0.000000000000000000, 0.000000000000000000, -1.000000000000000000 ) ) ;
#59 = PLANE ( 'NONE',  #90 ) ;
#60 = AXIS2_PLACEMENT_3D ( 'NONE', #15, #58, #2 ) ;
#61 = APPLICATION_PROTOCOL_DEFINITION ( 'international standard', 'config_control_design', 1994, #48 ) ;
#62 =( NAMED_UNIT ( * ) SI_UNIT ( $, .STERADIAN. ) SOLID_ANGLE_UNIT ( ) );
#63 = CYLINDRICAL_SURFACE ( 'NONE', #45, 25.00000000000000000 ) ;
#64 = PERSON_AND_ORGANIZATION_ROLE ( 'design_owner' ) ;
#65 = FACE_OUTER_BOUND ( 'NONE', #35, .T. ) ;
#66 = ORIENTED_EDGE ( 'NONE', *, *, #139, .F. ) ;
#67 = ORIENTED_EDGE ( 'NONE', *, *, #158, .T. ) ;
#68 = SECURITY_CLASSIFICATION ( '', '', #239 ) ;
#69 = ORIENTED_EDGE ( 'NONE', *, *, #71, .F. ) ;
#70 = CARTESIAN_POINT ( 'NONE',  ( 0.000000000000000000, 0.000000000000000000, 10.00000000000000000 ) ) ;
#71 = EDGE_CURVE ( 'NONE', #51, #206, #169, .T. ) ;
#72 = CARTESIAN_POINT ( 'NONE',  ( 8.500000000000000000, 1.040949779275250140E-15, 10.00000000000000000 ) ) ;
#73 = FACE_BOUND ( 'NONE', #212, .T. ) ;
#74 = CIRCLE ( 'NONE', #220, 25.00000000000000000 ) ;
#75 = CARTESIAN_POINT ( 'NONE',  ( -8.500000000000000000, 0.000000000000000000, 0.000000000000000000 ) ) ;
#76 = DIRECTION ( 'NONE',  ( 1.000000000000000000, 0.000000000000000000, 0.000000000000000000 ) ) ;
#77 = LOCAL_TIME ( 8, 57, 48.00000000000000000, #10 ) ;
#78 = PERSON_AND_ORGANIZATION_ROLE ( 'classification_officer' ) ;
#79 = DIRECTION ( 'NONE',  ( 0.000000000000000000, 0.000000000000000000, -1.000000000000000000 ) ) ;
#80 = CARTESIAN_POINT ( 'NONE',  ( 0.000000000000000000, 0.000000000000000000, 10.00000000000000000 ) ) ;
#81 = ADVANCED_FACE ( 'NONE', ( #86 ), #119, .F. ) ;
#82 = ORIENTED_EDGE ( 'NONE', *, *, #209, .T. ) ;
#83 = DESIGN_CONTEXT ( 'detailed design', #247, 'design' ) ;
#84 = APPROVAL_PERSON_ORGANIZATION ( #224, #23, #92 ) ;
#85 = DIRECTION ( 'NONE',  ( 1.000000000000000000, 0.000000000000000000, 0.000000000000000000 ) ) ;
#86 = FACE_OUTER_BOUND ( 'NONE', #192, .T. ) ;
#87 = VECTOR ( 'NONE', #173, 1000.000000000000000 ) ;
#88 = ADVANCED_FACE ( 'NONE', ( #65 ), #207, .F. ) ;
#89 = MANIFOLD_SOLID_BREP ( 'Imported1', #141 ) ;
#90 = AXIS2_PLACEMENT_3D ( 'NONE', #80, #152, #222 ) ;
#91 = CARTESIAN_POINT ( 'NONE',  ( 8.500000000000000000, 1.040949779275250140E-15, 10.00000000000000000 ) ) ;
#92 = APPROVAL_ROLE ( '' ) ;
#93 = CC_DESIGN_PERSON_AND_ORGANIZATION_ASSIGNMENT ( #221, #47, ( #160 ) ) ;
#94 = DIRECTION ( 'NONE',  ( 0.000000000000000000, 0.000000000000000000, 1.000000000000000000 ) ) ;
#95 = UNCERTAINTY_MEASURE_WITH_UNIT (LENGTH_MEASURE( 1.000000000000000082E-05 ), #26, 'distance_accuracy_value', 'NONE');
#96 = EDGE_CURVE ( 'NONE', #243, #237, #38, .T. ) ;
#97 = DATE_AND_TIME ( #17, #25 ) ;
#98 = FACE_OUTER_BOUND ( 'NONE', #210, .T. ) ;
#99 = DATE_AND_TIME ( #162, #186 ) ;
#100 = ORIENTED_EDGE ( 'NONE', *, *, #175, .F. ) ;
#101 = CIRCLE ( 'NONE', #117, 8.500000000000000000 ) ;
#102 = APPROVAL_PERSON_ORGANIZATION ( #20, #154, #18 ) ;
#103 = ORIENTED_EDGE ( 'NONE', *, *, #114, .T. ) ;
#104 = LINE ( 'NONE', #228, #157 ) ;
#105 = DIRECTION ( 'NONE',  ( 0.000000000000000000, 0.000000000000000000, -1.000000000000000000 ) ) ;
#106 = AXIS2_PLACEMENT_3D ( 'NONE', #189, #8, #21 ) ;
#107 = CARTESIAN_POINT ( 'NONE',  ( -25.00000000000000000, 0.000000000000000000, 0.000000000000000000 ) ) ;
#108 = DIRECTION ( 'NONE',  ( 0.000000000000000000, 0.000000000000000000, 1.000000000000000000 ) ) ;
#109 = VERTEX_POINT ( 'NONE', #107 ) ;
#110 = CARTESIAN_POINT ( 'NONE',  ( 25.00000000000000000, 3.061616997868383043E-15, 0.000000000000000000 ) ) ;
#111 = ORIENTED_EDGE ( 'NONE', *, *, #209, .F. ) ;
#112 = ORIENTED_EDGE ( 'NONE', *, *, #246, .T. ) ;
#113 = LINE ( 'NONE', #199, #238 ) ;
#114 = EDGE_CURVE ( 'NONE', #237, #51, #104, .T. ) ;
#115 = ORIENTED_EDGE ( 'NONE', *, *, #195, .T. ) ;
#116 = MECHANICAL_CONTEXT ( 'NONE', #48, 'mechanical' ) ;
#117 = AXIS2_PLACEMENT_3D ( 'NONE', #161, #142, #184 ) ;
#118 = APPROVAL ( #232, 'UNSPECIFIED' ) ;
#119 = CYLINDRICAL_SURFACE ( 'NONE', #146, 8.500000000000000000 ) ;
#120 = EDGE_LOOP ( 'NONE', ( #7, #236 ) ) ;
#121 = EDGE_CURVE ( 'NONE', #206, #51, #101, .T. ) ;
#122 = FACE_BOUND ( 'NONE', #164, .T. ) ;
#123 = CARTESIAN_POINT ( 'NONE',  ( 0.000000000000000000, 0.000000000000000000, 0.000000000000000000 ) ) ;
#124 = ORGANIZATION ( 'UNSPECIFIED', 'UNSPECIFIED', '' ) ;
#125 = APPROVAL_DATE_TIME ( #143, #118 ) ;
#126 = DIRECTION ( 'NONE',  ( -1.000000000000000000, 0.000000000000000000, 0.000000000000000000 ) ) ;
#127 = CC_DESIGN_PERSON_AND_ORGANIZATION_ASSIGNMENT ( #170, #193, ( #53 ) ) ;
#128 = AXIS2_PLACEMENT_3D ( 'NONE', #235, #108, #76 ) ;
#129 = ADVANCED_FACE ( 'NONE', ( #52, #122 ), #187, .F. ) ;
#130 = CALENDAR_DATE ( 2021, 25, 10 ) ;
#131 = PERSON_AND_ORGANIZATION ( #229, #124 ) ;
#132 = LOCAL_TIME ( 8, 57, 48.00000000000000000, #4 ) ;
#133 = PERSON_AND_ORGANIZATION ( #229, #124 ) ;
#134 = CARTESIAN_POINT ( 'NONE',  ( 0.000000000000000000, 0.000000000000000000, 0.000000000000000000 ) ) ;
#135 = ORIENTED_EDGE ( 'NONE', *, *, #27, .T. ) ;
#136 = DIRECTION ( 'NONE',  ( 1.000000000000000000, 0.000000000000000000, 0.000000000000000000 ) ) ;
#137 =( GEOMETRIC_REPRESENTATION_CONTEXT ( 3 ) GLOBAL_UNCERTAINTY_ASSIGNED_CONTEXT ( ( #95 ) ) GLOBAL_UNIT_ASSIGNED_CONTEXT ( ( #26, #150, #62 ) ) REPRESENTATION_CONTEXT ( 'NONE', 'WORKASPACE' ) );
#138 = CARTESIAN_POINT ( 'NONE',  ( 0.000000000000000000, 0.000000000000000000, 0.000000000000000000 ) ) ;
#139 = EDGE_CURVE ( 'NONE', #12, #216, #202, .T. ) ;
#140 = APPLICATION_PROTOCOL_DEFINITION ( 'international standard', 'config_control_design', 1994, #247 ) ;
#141 = CLOSED_SHELL ( 'NONE', ( #88, #149, #144, #129, #32, #81 ) ) ;
#142 = DIRECTION ( 'NONE',  ( 0.000000000000000000, 0.000000000000000000, 1.000000000000000000 ) ) ;
#143 = DATE_AND_TIME ( #188, #132 ) ;
#144 = ADVANCED_FACE ( 'NONE', ( #24, #73 ), #59, .T. ) ;
#145 = PRODUCT_RELATED_PRODUCT_CATEGORY ( 'detail', '', ( #241 ) ) ;
#146 = AXIS2_PLACEMENT_3D ( 'NONE', #54, #105, #126 ) ;
#147 = SHAPE_DEFINITION_REPRESENTATION ( #43, #198 ) ;
#148 = LOCAL_TIME ( 8, 57, 48.00000000000000000, #168 ) ;
#149 = ADVANCED_FACE ( 'NONE', ( #98 ), #63, .T. ) ;
#150 =( NAMED_UNIT ( * ) PLANE_ANGLE_UNIT ( ) SI_UNIT ( $, .RADIAN. ) );
#151 = ORIENTED_EDGE ( 'NONE', *, *, #218, .T. ) ;
#152 = DIRECTION ( 'NONE',  ( 0.000000000000000000, 0.000000000000000000, 1.000000000000000000 ) ) ;
#153 = AXIS2_PLACEMENT_3D ( 'NONE', #14, #57, #136 ) ;
#154 = APPROVAL ( #163, 'UNSPECIFIED' ) ;
#155 = ORIENTED_EDGE ( 'NONE', *, *, #71, .T. ) ;
#156 = DIRECTION ( 'NONE',  ( 0.000000000000000000, 0.000000000000000000, 1.000000000000000000 ) ) ;
#157 = VECTOR ( 'NONE', #5, 1000.000000000000000 ) ;
#158 = EDGE_CURVE ( 'NONE', #237, #243, #159, .T. ) ;
#159 = CIRCLE ( 'NONE', #153, 8.500000000000000000 ) ;
#160 = PRODUCT_DEFINITION_FORMATION_WITH_SPECIFIED_SOURCE ( 'ANY', '', #241, .NOT_KNOWN. ) ;
#161 = CARTESIAN_POINT ( 'NONE',  ( 0.000000000000000000, 0.000000000000000000, 0.000000000000000000 ) ) ;
#162 = CALENDAR_DATE ( 2021, 25, 10 ) ;
#163 = APPROVAL_STATUS ( 'not_yet_approved' ) ;
#164 = EDGE_LOOP ( 'NONE', ( #155, #182 ) ) ;
#165 = DATE_AND_TIME ( #11, #77 ) ;
#166 = CC_DESIGN_DATE_AND_TIME_ASSIGNMENT ( #99, #227, ( #68 ) ) ;
#167 = LINE ( 'NONE', #72, #190 ) ;
#168 = COORDINATED_UNIVERSAL_TIME_OFFSET ( 9, 0, .AHEAD. ) ;
#169 = CIRCLE ( 'NONE', #22, 8.500000000000000000 ) ;
#170 = PERSON_AND_ORGANIZATION ( #229, #124 ) ;
#171 = ORIENTED_EDGE ( 'NONE', *, *, #246, .F. ) ;
#172 = FACE_OUTER_BOUND ( 'NONE', #37, .T. ) ;
#173 = DIRECTION ( 'NONE',  ( 0.000000000000000000, 0.000000000000000000, -1.000000000000000000 ) ) ;
#174 = CC_DESIGN_APPROVAL ( #154, ( #160 ) ) ;
#175 = EDGE_CURVE ( 'NONE', #216, #109, #219, .T. ) ;
#176 = ORIENTED_EDGE ( 'NONE', *, *, #121, .F. ) ;
#177 = CARTESIAN_POINT ( 'NONE',  ( -25.00000000000000000, 0.000000000000000000, 10.00000000000000000 ) ) ;
#178 = DIRECTION ( 'NONE',  ( 1.000000000000000000, 0.000000000000000000, 0.000000000000000000 ) ) ;
#179 = CARTESIAN_POINT ( 'NONE',  ( 0.000000000000000000, 0.000000000000000000, 10.00000000000000000 ) ) ;
#180 = ORIENTED_EDGE ( 'NONE', *, *, #96, .T. ) ;
#181 = DATE_TIME_ROLE ( 'creation_date' ) ;
#182 = ORIENTED_EDGE ( 'NONE', *, *, #121, .T. ) ;
#183 = CC_DESIGN_DATE_AND_TIME_ASSIGNMENT ( #165, #181, ( #53 ) ) ;
#184 = DIRECTION ( 'NONE',  ( 1.000000000000000000, 0.000000000000000000, 0.000000000000000000 ) ) ;
#185 = AXIS2_PLACEMENT_3D ( 'NONE', #134, #16, #85 ) ;
#186 = LOCAL_TIME ( 8, 57, 48.00000000000000000, #248 ) ;
#187 = PLANE ( 'NONE',  #128 ) ;
#188 = CALENDAR_DATE ( 2021, 25, 10 ) ;
#189 = CARTESIAN_POINT ( 'NONE',  ( 0.000000000000000000, 0.000000000000000000, 10.00000000000000000 ) ) ;
#190 = VECTOR ( 'NONE', #31, 1000.000000000000000 ) ;
#191 = AXIS2_PLACEMENT_3D ( 'NONE', #244, #156, #33 ) ;
#192 = EDGE_LOOP ( 'NONE', ( #171, #180, #103, #176 ) ) ;
#193 = PERSON_AND_ORGANIZATION_ROLE ( 'creator' ) ;
#194 = AXIS2_PLACEMENT_3D ( 'NONE', #70, #3, #19 ) ;
#195 = EDGE_CURVE ( 'NONE', #231, #109, #234, .T. ) ;
#196 = PERSON_AND_ORGANIZATION_ROLE ( 'design_supplier' ) ;
#197 = ORIENTED_EDGE ( 'NONE', *, *, #96, .F. ) ;
#198 = ADVANCED_BREP_SHAPE_REPRESENTATION ( 'bj623-16003', ( #89, #191 ), #137 ) ;
#199 = CARTESIAN_POINT ( 'NONE',  ( 25.00000000000000000, 3.061616997868383043E-15, 10.00000000000000000 ) ) ;
#200 = DIRECTION ( 'NONE',  ( 0.000000000000000000, 0.000000000000000000, 1.000000000000000000 ) ) ;
#201 = APPROVAL_STATUS ( 'not_yet_approved' ) ;
#202 = CIRCLE ( 'NONE', #29, 25.00000000000000000 ) ;
#203 = ORIENTED_EDGE ( 'NONE', *, *, #114, .F. ) ;
#204 = EDGE_LOOP ( 'NONE', ( #135, #56 ) ) ;
#205 = CIRCLE ( 'NONE', #217, 25.00000000000000000 ) ;
#206 = VERTEX_POINT ( 'NONE', #42 ) ;
#207 = CYLINDRICAL_SURFACE ( 'NONE', #106, 8.500000000000000000 ) ;
#208 = CARTESIAN_POINT ( 'NONE',  ( -8.500000000000000000, 0.000000000000000000, 10.00000000000000000 ) ) ;
#209 = EDGE_CURVE ( 'NONE', #12, #231, #113, .T. ) ;
#210 = EDGE_LOOP ( 'NONE', ( #66, #82, #115, #100 ) ) ;
#211 = DATE_AND_TIME ( #130, #148 ) ;
#212 = EDGE_LOOP ( 'NONE', ( #1, #197 ) ) ;
#213 = CC_DESIGN_PERSON_AND_ORGANIZATION_ASSIGNMENT ( #131, #196, ( #160 ) ) ;
#214 = CARTESIAN_POINT ( 'NONE',  ( 0.000000000000000000, 0.000000000000000000, 10.00000000000000000 ) ) ;
#215 = CARTESIAN_POINT ( 'NONE',  ( 25.00000000000000000, 3.061616997868383043E-15, 10.00000000000000000 ) ) ;
#216 = VERTEX_POINT ( 'NONE', #240 ) ;
#217 = AXIS2_PLACEMENT_3D ( 'NONE', #28, #94, #44 ) ;
#218 = EDGE_CURVE ( 'NONE', #109, #231, #74, .T. ) ;
#219 = LINE ( 'NONE', #177, #87 ) ;
#220 = AXIS2_PLACEMENT_3D ( 'NONE', #123, #55, #41 ) ;
#221 = PERSON_AND_ORGANIZATION ( #229, #124 ) ;
#222 = DIRECTION ( 'NONE',  ( 1.000000000000000000, 0.000000000000000000, 0.000000000000000000 ) ) ;
#223 = DIRECTION ( 'NONE',  ( -1.000000000000000000, 0.000000000000000000, 0.000000000000000000 ) ) ;
#224 = PERSON_AND_ORGANIZATION ( #229, #124 ) ;
#225 = COORDINATED_UNIVERSAL_TIME_OFFSET ( 9, 0, .AHEAD. ) ;
#226 = DIRECTION ( 'NONE',  ( 0.000000000000000000, 0.000000000000000000, 1.000000000000000000 ) ) ;
#227 = DATE_TIME_ROLE ( 'classification_date' ) ;
#228 = CARTESIAN_POINT ( 'NONE',  ( -8.500000000000000000, 0.000000000000000000, 10.00000000000000000 ) ) ;
#229 = PERSON ( 'UNSPECIFIED', 'UNSPECIFIED', 'UNSPECIFIED', ('UNSPECIFIED'), ('UNSPECIFIED'), ('UNSPECIFIED') ) ;
#230 = APPROVAL_ROLE ( '' ) ;
#231 = VERTEX_POINT ( 'NONE', #110 ) ;
#232 = APPROVAL_STATUS ( 'not_yet_approved' ) ;
#233 = CC_DESIGN_PERSON_AND_ORGANIZATION_ASSIGNMENT ( #133, #78, ( #68 ) ) ;
#234 = CIRCLE ( 'NONE', #185, 25.00000000000000000 ) ;
#235 = CARTESIAN_POINT ( 'NONE',  ( 0.000000000000000000, 0.000000000000000000, 0.000000000000000000 ) ) ;
#236 = ORIENTED_EDGE ( 'NONE', *, *, #195, .F. ) ;
#237 = VERTEX_POINT ( 'NONE', #208 ) ;
#238 = VECTOR ( 'NONE', #79, 1000.000000000000000 ) ;
#239 = SECURITY_CLASSIFICATION_LEVEL ( 'unclassified' ) ;
#240 = CARTESIAN_POINT ( 'NONE',  ( -25.00000000000000000, 0.000000000000000000, 10.00000000000000000 ) ) ;
#241 = PRODUCT ( 'bj623-16003', 'bj623-16003', '', ( #116 ) ) ;
#242 = APPROVAL_DATE_TIME ( #97, #154 ) ;
#243 = VERTEX_POINT ( 'NONE', #91 ) ;
#244 = CARTESIAN_POINT ( 'NONE',  ( 0.000000000000000000, 0.000000000000000000, 0.000000000000000000 ) ) ;
#245 = DIRECTION ( 'NONE',  ( 0.000000000000000000, 0.000000000000000000, -1.000000000000000000 ) ) ;
#246 = EDGE_CURVE ( 'NONE', #243, #206, #167, .T. ) ;
#247 = APPLICATION_CONTEXT ( 'configuration controlled 3d designs of mechanical parts and assemblies' ) ;
#248 = COORDINATED_UNIVERSAL_TIME_OFFSET ( 9, 0, .AHEAD. ) ;
#249 = PERSON_AND_ORGANIZATION ( #229, #124 ) ;
ENDSEC;
END-ISO-10303-21;
