ISO-10303-21;
HEADER;
FILE_DESCRIPTION (( 'STEP AP203' ),
    '1' );
FILE_NAME ('bj300-08025.STEP',
    '2021-10-24T23:50:52',
    ( '' ),
    ( '' ),
    'SwSTEP 2.0',
    'SolidWorks 2020',
    '' );
FILE_SCHEMA (( 'CONFIG_CONTROL_DESIGN' ));
ENDSEC;

DATA;
#1 = VERTEX_POINT ( 'NONE', #232 ) ;
#2 = EDGE_LOOP ( 'NONE', ( #226, #31 ) ) ;
#3 = ADVANCED_FACE ( 'NONE', ( #115 ), #214, .F. ) ;
#4 = AXIS2_PLACEMENT_3D ( 'NONE', #227, #207, #137 ) ;
#5 = DIRECTION ( 'NONE',  ( 1.000000000000000000, 0.000000000000000000, 0.000000000000000000 ) ) ;
#6 = APPROVAL_ROLE ( '' ) ;
#7 = COORDINATED_UNIVERSAL_TIME_OFFSET ( 9, 0, .AHEAD. ) ;
#8 = PERSON_AND_ORGANIZATION ( #28, #147 ) ;
#9 = PRODUCT_DEFINITION ( 'UNKNOWN', '', #144, #32 ) ;
#10 = AXIS2_PLACEMENT_3D ( 'NONE', #280, #131, #162 ) ;
#11 = FACE_OUTER_BOUND ( 'NONE', #275, .T. ) ;
#12 = DIRECTION ( 'NONE',  ( -1.000000000000000000, 0.000000000000000000, 0.000000000000000000 ) ) ;
#13 = ORIENTED_EDGE ( 'NONE', *, *, #324, .F. ) ;
#14 = AXIS2_PLACEMENT_3D ( 'NONE', #61, #217, #91 ) ;
#15 = EDGE_CURVE ( 'NONE', #166, #20, #180, .T. ) ;
#16 = PLANE ( 'NONE',  #121 ) ;
#17 = VERTEX_POINT ( 'NONE', #311 ) ;
#18 = LOCAL_TIME ( 8, 50, 52.00000000000000000, #127 ) ;
#19 = APPLICATION_CONTEXT ( 'configuration controlled 3d designs of mechanical parts and assemblies' ) ;
#20 = VERTEX_POINT ( 'NONE', #143 ) ;
#21 = CARTESIAN_POINT ( 'NONE',  ( 4.500000000000000000, 0.000000000000000000, 40.00000000000000000 ) ) ;
#22 = DIRECTION ( 'NONE',  ( 0.000000000000000000, 0.000000000000000000, -1.000000000000000000 ) ) ;
#23 = ORIENTED_EDGE ( 'NONE', *, *, #178, .T. ) ;
#24 = CC_DESIGN_PERSON_AND_ORGANIZATION_ASSIGNMENT ( #310, #288, ( #9 ) ) ;
#25 = AXIS2_PLACEMENT_3D ( 'NONE', #93, #62, #304 ) ;
#26 = VERTEX_POINT ( 'NONE', #94 ) ;
#27 = ADVANCED_FACE ( 'NONE', ( #117, #195 ), #65, .F. ) ;
#28 = PERSON ( 'UNSPECIFIED', 'UNSPECIFIED', 'UNSPECIFIED', ('UNSPECIFIED'), ('UNSPECIFIED'), ('UNSPECIFIED') ) ;
#29 = ADVANCED_FACE ( 'NONE', ( #169 ), #119, .T. ) ;
#30 = DATE_AND_TIME ( #238, #322 ) ;
#31 = ORIENTED_EDGE ( 'NONE', *, *, #172, .F. ) ;
#32 = DESIGN_CONTEXT ( 'detailed design', #19, 'design' ) ;
#33 = DIRECTION ( 'NONE',  ( 0.000000000000000000, 0.000000000000000000, 1.000000000000000000 ) ) ;
#34 = APPLICATION_PROTOCOL_DEFINITION ( 'international standard', 'config_control_design', 1994, #236 ) ;
#35 = CARTESIAN_POINT ( 'NONE',  ( 4.500000000000000000, 0.000000000000000000, 0.000000000000000000 ) ) ;
#36 = AXIS2_PLACEMENT_3D ( 'NONE', #35, #146, #308 ) ;
#37 = SECURITY_CLASSIFICATION_LEVEL ( 'unclassified' ) ;
#38 = DIRECTION ( 'NONE',  ( 0.000000000000000000, 0.000000000000000000, 1.000000000000000000 ) ) ;
#39 = CIRCLE ( 'NONE', #211, 7.000000000000000000 ) ;
#40 = PERSON_AND_ORGANIZATION_ROLE ( 'classification_officer' ) ;
#41 = EDGE_CURVE ( 'NONE', #26, #204, #197, .T. ) ;
#42 = CIRCLE ( 'NONE', #87, 12.50000000000000000 ) ;
#43 = DIRECTION ( 'NONE',  ( 0.000000000000000000, 0.000000000000000000, 1.000000000000000000 ) ) ;
#44 = EDGE_CURVE ( 'NONE', #174, #1, #42, .T. ) ;
#45 = LOCAL_TIME ( 8, 50, 52.00000000000000000, #151 ) ;
#46 = FACE_OUTER_BOUND ( 'NONE', #301, .T. ) ;
#47 = EDGE_CURVE ( 'NONE', #225, #258, #228, .T. ) ;
#48 = CARTESIAN_POINT ( 'NONE',  ( 0.000000000000000000, 0.000000000000000000, 40.00000000000000000 ) ) ;
#49 = ORIENTED_EDGE ( 'NONE', *, *, #303, .T. ) ;
#50 = CARTESIAN_POINT ( 'NONE',  ( 0.000000000000000000, 0.000000000000000000, 0.000000000000000000 ) ) ;
#51 = VERTEX_POINT ( 'NONE', #252 ) ;
#52 = CIRCLE ( 'NONE', #95, 7.000000000000000000 ) ;
#53 = CARTESIAN_POINT ( 'NONE',  ( 12.50000000000000000, 0.000000000000000000, 25.00000000000000000 ) ) ;
#54 = ORIENTED_EDGE ( 'NONE', *, *, #239, .T. ) ;
#55 = PLANE ( 'NONE',  #105 ) ;
#56 = EDGE_LOOP ( 'NONE', ( #327, #138 ) ) ;
#57 = CARTESIAN_POINT ( 'NONE',  ( 0.000000000000000000, 0.000000000000000000, 25.00000000000000000 ) ) ;
#58 = EDGE_LOOP ( 'NONE', ( #283, #145 ) ) ;
#59 = CC_DESIGN_PERSON_AND_ORGANIZATION_ASSIGNMENT ( #8, #72, ( #144 ) ) ;
#60 = APPROVAL_ROLE ( '' ) ;
#61 = CARTESIAN_POINT ( 'NONE',  ( 0.000000000000000000, 0.000000000000000000, 40.00000000000000000 ) ) ;
#62 = DIRECTION ( 'NONE',  ( 0.000000000000000000, 0.000000000000000000, 1.000000000000000000 ) ) ;
#63 = DIRECTION ( 'NONE',  ( 1.000000000000000000, 0.000000000000000000, 0.000000000000000000 ) ) ;
#64 = LOCAL_TIME ( 8, 50, 52.00000000000000000, #118 ) ;
#65 = PLANE ( 'NONE',  #36 ) ;
#66 = LOCAL_TIME ( 8, 50, 52.00000000000000000, #7 ) ;
#67 = EDGE_LOOP ( 'NONE', ( #186, #205, #281, #130 ) ) ;
#68 = DATE_AND_TIME ( #123, #18 ) ;
#69 = VECTOR ( 'NONE', #173, 1000.000000000000000 ) ;
#70 = DIRECTION ( 'NONE',  ( 1.000000000000000000, 0.000000000000000000, 0.000000000000000000 ) ) ;
#71 = ADVANCED_FACE ( 'NONE', ( #11 ), #177, .F. ) ;
#72 = PERSON_AND_ORGANIZATION_ROLE ( 'design_supplier' ) ;
#73 = CARTESIAN_POINT ( 'NONE',  ( 0.000000000000000000, 0.000000000000000000, 0.000000000000000000 ) ) ;
#74 = DIRECTION ( 'NONE',  ( 1.000000000000000000, 0.000000000000000000, 0.000000000000000000 ) ) ;
#75 = LINE ( 'NONE', #106, #161 ) ;
#76 = ORIENTED_EDGE ( 'NONE', *, *, #89, .T. ) ;
#77 = DIRECTION ( 'NONE',  ( -1.000000000000000000, 0.000000000000000000, 0.000000000000000000 ) ) ;
#78 = ORIENTED_EDGE ( 'NONE', *, *, #282, .F. ) ;
#79 = DIRECTION ( 'NONE',  ( 1.000000000000000000, 0.000000000000000000, 0.000000000000000000 ) ) ;
#80 = ORIENTED_EDGE ( 'NONE', *, *, #114, .F. ) ;
#81 = EDGE_CURVE ( 'NONE', #51, #17, #319, .T. ) ;
#82 = VECTOR ( 'NONE', #163, 1000.000000000000000 ) ;
#83 = ADVANCED_FACE ( 'NONE', ( #220 ), #313, .F. ) ;
#84 = CARTESIAN_POINT ( 'NONE',  ( -4.500000000000000000, 5.510910596163088569E-16, 40.00000000000000000 ) ) ;
#85 = EDGE_LOOP ( 'NONE', ( #111, #192, #208, #80 ) ) ;
#86 = COORDINATED_UNIVERSAL_TIME_OFFSET ( 9, 0, .AHEAD. ) ;
#87 = AXIS2_PLACEMENT_3D ( 'NONE', #245, #101, #267 ) ;
#88 =( NAMED_UNIT ( * ) PLANE_ANGLE_UNIT ( ) SI_UNIT ( $, .RADIAN. ) );
#89 = EDGE_CURVE ( 'NONE', #1, #174, #182, .T. ) ;
#90 = APPLICATION_PROTOCOL_DEFINITION ( 'international standard', 'config_control_design', 1994, #19 ) ;
#91 = DIRECTION ( 'NONE',  ( 1.000000000000000000, 0.000000000000000000, 0.000000000000000000 ) ) ;
#92 = UNCERTAINTY_MEASURE_WITH_UNIT (LENGTH_MEASURE( 1.000000000000000082E-05 ), #285, 'distance_accuracy_value', 'NONE');
#93 = CARTESIAN_POINT ( 'NONE',  ( 0.000000000000000000, 0.000000000000000000, 0.000000000000000000 ) ) ;
#94 = CARTESIAN_POINT ( 'NONE',  ( -4.500000000000000000, 5.510910596163088569E-16, 0.000000000000000000 ) ) ;
#95 = AXIS2_PLACEMENT_3D ( 'NONE', #323, #188, #191 ) ;
#96 = CARTESIAN_POINT ( 'NONE',  ( 0.000000000000000000, 0.000000000000000000, 40.00000000000000000 ) ) ;
#97 = AXIS2_PLACEMENT_3D ( 'NONE', #262, #196, #241 ) ;
#98 = CC_DESIGN_PERSON_AND_ORGANIZATION_ASSIGNMENT ( #244, #249, ( #144 ) ) ;
#99 = CALENDAR_DATE ( 2021, 25, 10 ) ;
#100 = CIRCLE ( 'NONE', #133, 7.000000000000000000 ) ;
#101 = DIRECTION ( 'NONE',  ( 0.000000000000000000, 0.000000000000000000, 1.000000000000000000 ) ) ;
#102 = DIRECTION ( 'NONE',  ( 0.000000000000000000, 0.000000000000000000, 1.000000000000000000 ) ) ;
#103 = DIRECTION ( 'NONE',  ( 0.000000000000000000, 0.000000000000000000, -1.000000000000000000 ) ) ;
#104 = ORIENTED_EDGE ( 'NONE', *, *, #178, .F. ) ;
#105 = AXIS2_PLACEMENT_3D ( 'NONE', #276, #103, #77 ) ;
#106 = CARTESIAN_POINT ( 'NONE',  ( 7.000000000000000000, 0.000000000000000000, 40.00000000000000000 ) ) ;
#107 = EDGE_LOOP ( 'NONE', ( #23, #256 ) ) ;
#108 = DIRECTION ( 'NONE',  ( 0.000000000000000000, 0.000000000000000000, 1.000000000000000000 ) ) ;
#109 = VERTEX_POINT ( 'NONE', #124 ) ;
#110 = DIRECTION ( 'NONE',  ( 1.000000000000000000, 0.000000000000000000, 0.000000000000000000 ) ) ;
#111 = ORIENTED_EDGE ( 'NONE', *, *, #47, .T. ) ;
#112 = CARTESIAN_POINT ( 'NONE',  ( -12.50000000000000000, 1.530808498934191521E-15, 40.00000000000000000 ) ) ;
#113 = EDGE_LOOP ( 'NONE', ( #158, #135, #49, #164 ) ) ;
#114 = EDGE_CURVE ( 'NONE', #225, #174, #315, .T. ) ;
#115 = FACE_OUTER_BOUND ( 'NONE', #113, .T. ) ;
#116 = PERSON_AND_ORGANIZATION ( #28, #147 ) ;
#117 = FACE_OUTER_BOUND ( 'NONE', #2, .T. ) ;
#118 = COORDINATED_UNIVERSAL_TIME_OFFSET ( 9, 0, .AHEAD. ) ;
#119 = CYLINDRICAL_SURFACE ( 'NONE', #14, 12.50000000000000000 ) ;
#120 = AXIS2_PLACEMENT_3D ( 'NONE', #126, #102, #246 ) ;
#121 = AXIS2_PLACEMENT_3D ( 'NONE', #53, #22, #12 ) ;
#122 = DIRECTION ( 'NONE',  ( 0.000000000000000000, 0.000000000000000000, 1.000000000000000000 ) ) ;
#123 = CALENDAR_DATE ( 2021, 25, 10 ) ;
#124 = CARTESIAN_POINT ( 'NONE',  ( 7.000000000000000000, 0.000000000000000000, 25.00000000000000000 ) ) ;
#125 = DATE_AND_TIME ( #317, #66 ) ;
#126 = CARTESIAN_POINT ( 'NONE',  ( 0.000000000000000000, 0.000000000000000000, 25.00000000000000000 ) ) ;
#127 = COORDINATED_UNIVERSAL_TIME_OFFSET ( 9, 0, .AHEAD. ) ;
#128 = ORIENTED_EDGE ( 'NONE', *, *, #324, .T. ) ;
#129 = CYLINDRICAL_SURFACE ( 'NONE', #309, 7.000000000000000000 ) ;
#130 = ORIENTED_EDGE ( 'NONE', *, *, #239, .F. ) ;
#131 = DIRECTION ( 'NONE',  ( 0.000000000000000000, 0.000000000000000000, 1.000000000000000000 ) ) ;
#132 = ORIENTED_EDGE ( 'NONE', *, *, #44, .T. ) ;
#133 = AXIS2_PLACEMENT_3D ( 'NONE', #231, #234, #198 ) ;
#134 = CARTESIAN_POINT ( 'NONE',  ( 12.50000000000000000, 0.000000000000000000, 0.000000000000000000 ) ) ;
#135 = ORIENTED_EDGE ( 'NONE', *, *, #305, .F. ) ;
#136 = ORIENTED_EDGE ( 'NONE', *, *, #15, .T. ) ;
#137 = DIRECTION ( 'NONE',  ( 1.000000000000000000, 0.000000000000000000, 0.000000000000000000 ) ) ;
#138 = ORIENTED_EDGE ( 'NONE', *, *, #41, .T. ) ;
#139 = EDGE_CURVE ( 'NONE', #258, #1, #221, .T. ) ;
#140 = APPROVAL_PERSON_ORGANIZATION ( #272, #212, #219 ) ;
#141 = CC_DESIGN_PERSON_AND_ORGANIZATION_ASSIGNMENT ( #271, #40, ( #155 ) ) ;
#142 = APPROVAL_DATE_TIME ( #30, #247 ) ;
#143 = CARTESIAN_POINT ( 'NONE',  ( 4.500000000000000000, 0.000000000000000000, 7.000000000000000000 ) ) ;
#144 = PRODUCT_DEFINITION_FORMATION_WITH_SPECIFIED_SOURCE ( 'ANY', '', #314, .NOT_KNOWN. ) ;
#145 = ORIENTED_EDGE ( 'NONE', *, *, #15, .F. ) ;
#146 = DIRECTION ( 'NONE',  ( 0.000000000000000000, 0.000000000000000000, 1.000000000000000000 ) ) ;
#147 = ORGANIZATION ( 'UNSPECIFIED', 'UNSPECIFIED', '' ) ;
#148 = DIRECTION ( 'NONE',  ( 1.000000000000000000, 0.000000000000000000, 0.000000000000000000 ) ) ;
#149 = CALENDAR_DATE ( 2021, 25, 10 ) ;
#150 = CARTESIAN_POINT ( 'NONE',  ( 12.50000000000000000, 0.000000000000000000, 40.00000000000000000 ) ) ;
#151 = COORDINATED_UNIVERSAL_TIME_OFFSET ( 9, 0, .AHEAD. ) ;
#152 = CLOSED_SHELL ( 'NONE', ( #83, #279, #71, #159, #3, #27, #29, #295, #200 ) ) ;
#153 = MANIFOLD_SOLID_BREP ( 'Imported1', #152 ) ;
#154 = DIRECTION ( 'NONE',  ( 1.000000000000000000, 0.000000000000000000, 0.000000000000000000 ) ) ;
#155 = SECURITY_CLASSIFICATION ( '', '', #37 ) ;
#156 = CARTESIAN_POINT ( 'NONE',  ( 4.500000000000000000, 0.000000000000000000, 0.000000000000000000 ) ) ;
#157 = CYLINDRICAL_SURFACE ( 'NONE', #203, 12.50000000000000000 ) ;
#158 = ORIENTED_EDGE ( 'NONE', *, *, #230, .F. ) ;
#159 = ADVANCED_FACE ( 'NONE', ( #253, #320 ), #55, .F. ) ;
#160 = CARTESIAN_POINT ( 'NONE',  ( 7.000000000000000000, 0.000000000000000000, 7.000000000000000000 ) ) ;
#161 = VECTOR ( 'NONE', #273, 1000.000000000000000 ) ;
#162 = DIRECTION ( 'NONE',  ( 1.000000000000000000, 0.000000000000000000, 0.000000000000000000 ) ) ;
#163 = DIRECTION ( 'NONE',  ( 0.000000000000000000, 0.000000000000000000, 1.000000000000000000 ) ) ;
#164 = ORIENTED_EDGE ( 'NONE', *, *, #296, .T. ) ;
#165 = AXIS2_PLACEMENT_3D ( 'NONE', #306, #33, #5 ) ;
#166 = VERTEX_POINT ( 'NONE', #329 ) ;
#167 = CIRCLE ( 'NONE', #176, 7.000000000000000000 ) ;
#168 = APPROVAL_STATUS ( 'not_yet_approved' ) ;
#169 = FACE_OUTER_BOUND ( 'NONE', #187, .T. ) ;
#170 = PRODUCT_DEFINITION_SHAPE ( 'NONE', 'NONE',  #9 ) ;
#171 = AXIS2_PLACEMENT_3D ( 'NONE', #50, #298, #110 ) ;
#172 = EDGE_CURVE ( 'NONE', #258, #225, #255, .T. ) ;
#173 = DIRECTION ( 'NONE',  ( 0.000000000000000000, 0.000000000000000000, 1.000000000000000000 ) ) ;
#174 = VERTEX_POINT ( 'NONE', #326 ) ;
#175 = PERSON_AND_ORGANIZATION ( #28, #147 ) ;
#176 = AXIS2_PLACEMENT_3D ( 'NONE', #57, #261, #63 ) ;
#177 = CYLINDRICAL_SURFACE ( 'NONE', #289, 4.500000000000000000 ) ;
#178 = EDGE_CURVE ( 'NONE', #189, #51, #39, .T. ) ;
#179 = SHAPE_DEFINITION_REPRESENTATION ( #170, #284 ) ;
#180 = CIRCLE ( 'NONE', #97, 4.500000000000000000 ) ;
#181 = CARTESIAN_POINT ( 'NONE',  ( 0.000000000000000000, 0.000000000000000000, 40.00000000000000000 ) ) ;
#182 = CIRCLE ( 'NONE', #120, 12.50000000000000000 ) ;
#183 = LINE ( 'NONE', #84, #224 ) ;
#184 = VECTOR ( 'NONE', #223, 1000.000000000000000 ) ;
#185 = DIRECTION ( 'NONE',  ( 0.000000000000000000, 0.000000000000000000, 1.000000000000000000 ) ) ;
#186 = ORIENTED_EDGE ( 'NONE', *, *, #312, .F. ) ;
#187 = EDGE_LOOP ( 'NONE', ( #299, #264, #328, #321 ) ) ;
#188 = DIRECTION ( 'NONE',  ( 0.000000000000000000, 0.000000000000000000, 1.000000000000000000 ) ) ;
#189 = VERTEX_POINT ( 'NONE', #160 ) ;
#190 = APPROVAL_PERSON_ORGANIZATION ( #175, #286, #6 ) ;
#191 = DIRECTION ( 'NONE',  ( 1.000000000000000000, 0.000000000000000000, 0.000000000000000000 ) ) ;
#192 = ORIENTED_EDGE ( 'NONE', *, *, #139, .T. ) ;
#193 = ORIENTED_EDGE ( 'NONE', *, *, #81, .F. ) ;
#194 = CC_DESIGN_APPROVAL ( #247, ( #9 ) ) ;
#195 = FACE_BOUND ( 'NONE', #56, .T. ) ;
#196 = DIRECTION ( 'NONE',  ( 0.000000000000000000, 0.000000000000000000, 1.000000000000000000 ) ) ;
#197 = CIRCLE ( 'NONE', #242, 4.500000000000000000 ) ;
#198 = DIRECTION ( 'NONE',  ( 1.000000000000000000, 0.000000000000000000, 0.000000000000000000 ) ) ;
#199 = APPROVAL_DATE_TIME ( #292, #212 ) ;
#200 = ADVANCED_FACE ( 'NONE', ( #213 ), #129, .F. ) ;
#201 = APPROVAL_STATUS ( 'not_yet_approved' ) ;
#202 = DATE_AND_TIME ( #99, #64 ) ;
#203 = AXIS2_PLACEMENT_3D ( 'NONE', #209, #300, #79 ) ;
#204 = VERTEX_POINT ( 'NONE', #156 ) ;
#205 = ORIENTED_EDGE ( 'NONE', *, *, #81, .T. ) ;
#206 = CARTESIAN_POINT ( 'NONE',  ( 0.000000000000000000, 0.000000000000000000, 7.000000000000000000 ) ) ;
#207 = DIRECTION ( 'NONE',  ( 0.000000000000000000, 0.000000000000000000, 1.000000000000000000 ) ) ;
#208 = ORIENTED_EDGE ( 'NONE', *, *, #44, .F. ) ;
#209 = CARTESIAN_POINT ( 'NONE',  ( 0.000000000000000000, 0.000000000000000000, 40.00000000000000000 ) ) ;
#210 = DIRECTION ( 'NONE',  ( 1.000000000000000000, 0.000000000000000000, 0.000000000000000000 ) ) ;
#211 = AXIS2_PLACEMENT_3D ( 'NONE', #206, #108, #210 ) ;
#212 = APPROVAL ( #201, 'UNSPECIFIED' ) ;
#213 = FACE_OUTER_BOUND ( 'NONE', #259, .T. ) ;
#214 = CYLINDRICAL_SURFACE ( 'NONE', #165, 4.500000000000000000 ) ;
#215 = APPROVAL_PERSON_ORGANIZATION ( #287, #247, #60 ) ;
#216 =( NAMED_UNIT ( * ) SI_UNIT ( $, .STERADIAN. ) SOLID_ANGLE_UNIT ( ) );
#217 = DIRECTION ( 'NONE',  ( 0.000000000000000000, 0.000000000000000000, 1.000000000000000000 ) ) ;
#218 = CC_DESIGN_SECURITY_CLASSIFICATION ( #155, ( #144 ) ) ;
#219 = APPROVAL_ROLE ( '' ) ;
#220 = FACE_OUTER_BOUND ( 'NONE', #67, .T. ) ;
#221 = LINE ( 'NONE', #112, #82 ) ;
#222 = DIRECTION ( 'NONE',  ( 1.000000000000000000, 0.000000000000000000, 0.000000000000000000 ) ) ;
#223 = DIRECTION ( 'NONE',  ( 0.000000000000000000, 0.000000000000000000, 1.000000000000000000 ) ) ;
#224 = VECTOR ( 'NONE', #185, 1000.000000000000000 ) ;
#225 = VERTEX_POINT ( 'NONE', #134 ) ;
#226 = ORIENTED_EDGE ( 'NONE', *, *, #47, .F. ) ;
#227 = CARTESIAN_POINT ( 'NONE',  ( 0.000000000000000000, 0.000000000000000000, 0.000000000000000000 ) ) ;
#228 = CIRCLE ( 'NONE', #265, 12.50000000000000000 ) ;
#229 = ORIENTED_EDGE ( 'NONE', *, *, #230, .T. ) ;
#230 = EDGE_CURVE ( 'NONE', #26, #166, #183, .T. ) ;
#231 = CARTESIAN_POINT ( 'NONE',  ( 0.000000000000000000, 0.000000000000000000, 7.000000000000000000 ) ) ;
#232 = CARTESIAN_POINT ( 'NONE',  ( -12.50000000000000000, 1.530808498934191521E-15, 25.00000000000000000 ) ) ;
#233 = CC_DESIGN_DATE_AND_TIME_ASSIGNMENT ( #202, #294, ( #9 ) ) ;
#234 = DIRECTION ( 'NONE',  ( 0.000000000000000000, 0.000000000000000000, 1.000000000000000000 ) ) ;
#235 = ORIENTED_EDGE ( 'NONE', *, *, #303, .F. ) ;
#236 = APPLICATION_CONTEXT ( 'configuration controlled 3d designs of mechanical parts and assemblies' ) ;
#237 = CIRCLE ( 'NONE', #10, 4.500000000000000000 ) ;
#238 = CALENDAR_DATE ( 2021, 25, 10 ) ;
#239 = EDGE_CURVE ( 'NONE', #189, #109, #75, .T. ) ;
#240 = MECHANICAL_CONTEXT ( 'NONE', #236, 'mechanical' ) ;
#241 = DIRECTION ( 'NONE',  ( 1.000000000000000000, 0.000000000000000000, 0.000000000000000000 ) ) ;
#242 = AXIS2_PLACEMENT_3D ( 'NONE', #263, #318, #222 ) ;
#243 = CC_DESIGN_DATE_AND_TIME_ASSIGNMENT ( #68, #291, ( #155 ) ) ;
#244 = PERSON_AND_ORGANIZATION ( #28, #147 ) ;
#245 = CARTESIAN_POINT ( 'NONE',  ( 0.000000000000000000, 0.000000000000000000, 25.00000000000000000 ) ) ;
#246 = DIRECTION ( 'NONE',  ( 1.000000000000000000, 0.000000000000000000, 0.000000000000000000 ) ) ;
#247 = APPROVAL ( #168, 'UNSPECIFIED' ) ;
#248 = DIRECTION ( 'NONE',  ( 0.000000000000000000, 0.000000000000000000, 1.000000000000000000 ) ) ;
#249 = PERSON_AND_ORGANIZATION_ROLE ( 'creator' ) ;
#250 = CC_DESIGN_APPROVAL ( #286, ( #155 ) ) ;
#251 = CIRCLE ( 'NONE', #4, 4.500000000000000000 ) ;
#252 = CARTESIAN_POINT ( 'NONE',  ( -7.000000000000000000, 8.572527594031473190E-16, 7.000000000000000000 ) ) ;
#253 = FACE_BOUND ( 'NONE', #58, .T. ) ;
#254 = CARTESIAN_POINT ( 'NONE',  ( -12.50000000000000000, 1.530808498934191521E-15, 0.000000000000000000 ) ) ;
#255 = CIRCLE ( 'NONE', #171, 12.50000000000000000 ) ;
#256 = ORIENTED_EDGE ( 'NONE', *, *, #312, .T. ) ;
#257 = LINE ( 'NONE', #21, #184 ) ;
#258 = VERTEX_POINT ( 'NONE', #254 ) ;
#259 = EDGE_LOOP ( 'NONE', ( #193, #104, #54, #128 ) ) ;
#260 = AXIS2_PLACEMENT_3D ( 'NONE', #96, #38, #148 ) ;
#261 = DIRECTION ( 'NONE',  ( 0.000000000000000000, 0.000000000000000000, 1.000000000000000000 ) ) ;
#262 = CARTESIAN_POINT ( 'NONE',  ( 0.000000000000000000, 0.000000000000000000, 7.000000000000000000 ) ) ;
#263 = CARTESIAN_POINT ( 'NONE',  ( 0.000000000000000000, 0.000000000000000000, 0.000000000000000000 ) ) ;
#264 = ORIENTED_EDGE ( 'NONE', *, *, #172, .T. ) ;
#265 = AXIS2_PLACEMENT_3D ( 'NONE', #73, #122, #70 ) ;
#266 = APPROVAL_DATE_TIME ( #125, #286 ) ;
#267 = DIRECTION ( 'NONE',  ( 1.000000000000000000, 0.000000000000000000, 0.000000000000000000 ) ) ;
#268 =( GEOMETRIC_REPRESENTATION_CONTEXT ( 3 ) GLOBAL_UNCERTAINTY_ASSIGNED_CONTEXT ( ( #92 ) ) GLOBAL_UNIT_ASSIGNED_CONTEXT ( ( #285, #88, #216 ) ) REPRESENTATION_CONTEXT ( 'NONE', 'WORKASPACE' ) );
#269 = APPROVAL_STATUS ( 'not_yet_approved' ) ;
#270 = CARTESIAN_POINT ( 'NONE',  ( -7.000000000000000000, 8.572527594031473190E-16, 40.00000000000000000 ) ) ;
#271 = PERSON_AND_ORGANIZATION ( #28, #147 ) ;
#272 = PERSON_AND_ORGANIZATION ( #28, #147 ) ;
#273 = DIRECTION ( 'NONE',  ( 0.000000000000000000, 0.000000000000000000, 1.000000000000000000 ) ) ;
#274 = FACE_OUTER_BOUND ( 'NONE', #85, .T. ) ;
#275 = EDGE_LOOP ( 'NONE', ( #325, #229, #136, #235 ) ) ;
#276 = CARTESIAN_POINT ( 'NONE',  ( 7.000000000000000000, 0.000000000000000000, 7.000000000000000000 ) ) ;
#277 = EDGE_LOOP ( 'NONE', ( #13, #78 ) ) ;
#278 = FACE_BOUND ( 'NONE', #277, .T. ) ;
#279 = ADVANCED_FACE ( 'NONE', ( #274 ), #157, .T. ) ;
#280 = CARTESIAN_POINT ( 'NONE',  ( 0.000000000000000000, 0.000000000000000000, 7.000000000000000000 ) ) ;
#281 = ORIENTED_EDGE ( 'NONE', *, *, #282, .T. ) ;
#282 = EDGE_CURVE ( 'NONE', #17, #109, #52, .T. ) ;
#283 = ORIENTED_EDGE ( 'NONE', *, *, #296, .F. ) ;
#284 = ADVANCED_BREP_SHAPE_REPRESENTATION ( 'bj300-08025', ( #153, #25 ), #268 ) ;
#285 =( LENGTH_UNIT ( ) NAMED_UNIT ( * ) SI_UNIT ( .MILLI., .METRE. ) );
#286 = APPROVAL ( #269, 'UNSPECIFIED' ) ;
#287 = PERSON_AND_ORGANIZATION ( #28, #147 ) ;
#288 = PERSON_AND_ORGANIZATION_ROLE ( 'creator' ) ;
#289 = AXIS2_PLACEMENT_3D ( 'NONE', #181, #43, #154 ) ;
#290 = PRODUCT_RELATED_PRODUCT_CATEGORY ( 'detail', '', ( #314 ) ) ;
#291 = DATE_TIME_ROLE ( 'classification_date' ) ;
#292 = DATE_AND_TIME ( #149, #45 ) ;
#293 = CC_DESIGN_PERSON_AND_ORGANIZATION_ASSIGNMENT ( #116, #307, ( #314 ) ) ;
#294 = DATE_TIME_ROLE ( 'creation_date' ) ;
#295 = ADVANCED_FACE ( 'NONE', ( #278, #46 ), #16, .F. ) ;
#296 = EDGE_CURVE ( 'NONE', #20, #166, #237, .T. ) ;
#297 = VECTOR ( 'NONE', #248, 1000.000000000000000 ) ;
#298 = DIRECTION ( 'NONE',  ( 0.000000000000000000, 0.000000000000000000, 1.000000000000000000 ) ) ;
#299 = ORIENTED_EDGE ( 'NONE', *, *, #139, .F. ) ;
#300 = DIRECTION ( 'NONE',  ( 0.000000000000000000, 0.000000000000000000, 1.000000000000000000 ) ) ;
#301 = EDGE_LOOP ( 'NONE', ( #132, #76 ) ) ;
#302 = DIRECTION ( 'NONE',  ( 0.000000000000000000, 0.000000000000000000, 1.000000000000000000 ) ) ;
#303 = EDGE_CURVE ( 'NONE', #204, #20, #257, .T. ) ;
#304 = DIRECTION ( 'NONE',  ( 1.000000000000000000, 0.000000000000000000, 0.000000000000000000 ) ) ;
#305 = EDGE_CURVE ( 'NONE', #204, #26, #251, .T. ) ;
#306 = CARTESIAN_POINT ( 'NONE',  ( 0.000000000000000000, 0.000000000000000000, 40.00000000000000000 ) ) ;
#307 = PERSON_AND_ORGANIZATION_ROLE ( 'design_owner' ) ;
#308 = DIRECTION ( 'NONE',  ( 1.000000000000000000, 0.000000000000000000, 0.000000000000000000 ) ) ;
#309 = AXIS2_PLACEMENT_3D ( 'NONE', #48, #302, #74 ) ;
#310 = PERSON_AND_ORGANIZATION ( #28, #147 ) ;
#311 = CARTESIAN_POINT ( 'NONE',  ( -7.000000000000000000, 8.572527594031473190E-16, 25.00000000000000000 ) ) ;
#312 = EDGE_CURVE ( 'NONE', #51, #189, #100, .T. ) ;
#313 = CYLINDRICAL_SURFACE ( 'NONE', #260, 7.000000000000000000 ) ;
#314 = PRODUCT ( 'bj300-08025', 'bj300-08025', '', ( #240 ) ) ;
#315 = LINE ( 'NONE', #150, #297 ) ;
#316 = CC_DESIGN_APPROVAL ( #212, ( #144 ) ) ;
#317 = CALENDAR_DATE ( 2021, 25, 10 ) ;
#318 = DIRECTION ( 'NONE',  ( 0.000000000000000000, 0.000000000000000000, 1.000000000000000000 ) ) ;
#319 = LINE ( 'NONE', #270, #69 ) ;
#320 = FACE_OUTER_BOUND ( 'NONE', #107, .T. ) ;
#321 = ORIENTED_EDGE ( 'NONE', *, *, #89, .F. ) ;
#322 = LOCAL_TIME ( 8, 50, 52.00000000000000000, #86 ) ;
#323 = CARTESIAN_POINT ( 'NONE',  ( 0.000000000000000000, 0.000000000000000000, 25.00000000000000000 ) ) ;
#324 = EDGE_CURVE ( 'NONE', #109, #17, #167, .T. ) ;
#325 = ORIENTED_EDGE ( 'NONE', *, *, #41, .F. ) ;
#326 = CARTESIAN_POINT ( 'NONE',  ( 12.50000000000000000, 0.000000000000000000, 25.00000000000000000 ) ) ;
#327 = ORIENTED_EDGE ( 'NONE', *, *, #305, .T. ) ;
#328 = ORIENTED_EDGE ( 'NONE', *, *, #114, .T. ) ;
#329 = CARTESIAN_POINT ( 'NONE',  ( -4.500000000000000000, 5.510910596163088569E-16, 7.000000000000000000 ) ) ;
ENDSEC;
END-ISO-10303-21;
