ISO-10303-21;
HEADER;
FILE_DESCRIPTION (( 'STEP AP203' ),
    '1' );
FILE_NAME ('bj300-08016.STEP',
    '2021-10-24T23:50:47',
    ( '' ),
    ( '' ),
    'SwSTEP 2.0',
    'SolidWorks 2020',
    '' );
FILE_SCHEMA (( 'CONFIG_CONTROL_DESIGN' ));
ENDSEC;

DATA;
#1 = DIRECTION ( 'NONE',  ( -1.000000000000000000, 0.000000000000000000, 0.000000000000000000 ) ) ;
#2 = PRODUCT_DEFINITION_SHAPE ( 'NONE', 'NONE',  #196 ) ;
#3 = AXIS2_PLACEMENT_3D ( 'NONE', #231, #74, #157 ) ;
#4 = CC_DESIGN_APPROVAL ( #224, ( #196 ) ) ;
#5 = DIRECTION ( 'NONE',  ( 1.000000000000000000, 0.000000000000000000, 0.000000000000000000 ) ) ;
#6 = EDGE_LOOP ( 'NONE', ( #226, #169, #273, #178 ) ) ;
#7 = EDGE_CURVE ( 'NONE', #34, #88, #124, .T. ) ;
#8 = COORDINATED_UNIVERSAL_TIME_OFFSET ( 9, 0, .AHEAD. ) ;
#9 = DIRECTION ( 'NONE',  ( 1.000000000000000000, 0.000000000000000000, 0.000000000000000000 ) ) ;
#10 = ORIENTED_EDGE ( 'NONE', *, *, #108, .F. ) ;
#11 = CIRCLE ( 'NONE', #319, 4.500000000000000000 ) ;
#12 = ADVANCED_FACE ( 'NONE', ( #180 ), #275, .T. ) ;
#13 = AXIS2_PLACEMENT_3D ( 'NONE', #187, #298, #257 ) ;
#14 = VERTEX_POINT ( 'NONE', #117 ) ;
#15 = VERTEX_POINT ( 'NONE', #312 ) ;
#16 = FACE_BOUND ( 'NONE', #260, .T. ) ;
#17 = ORIENTED_EDGE ( 'NONE', *, *, #103, .F. ) ;
#18 = AXIS2_PLACEMENT_3D ( 'NONE', #111, #214, #5 ) ;
#19 = DIRECTION ( 'NONE',  ( 1.000000000000000000, 0.000000000000000000, 0.000000000000000000 ) ) ;
#20 = FACE_OUTER_BOUND ( 'NONE', #121, .T. ) ;
#21 = EDGE_CURVE ( 'NONE', #140, #15, #204, .T. ) ;
#22 = SECURITY_CLASSIFICATION_LEVEL ( 'unclassified' ) ;
#23 = CARTESIAN_POINT ( 'NONE',  ( -4.500000000000000000, 5.510910596163088569E-16, 7.000000000000000000 ) ) ;
#24 = FACE_OUTER_BOUND ( 'NONE', #65, .T. ) ;
#25 = AXIS2_PLACEMENT_3D ( 'NONE', #284, #328, #77 ) ;
#26 = PERSON_AND_ORGANIZATION ( #48, #83 ) ;
#27 = CARTESIAN_POINT ( 'NONE',  ( 0.000000000000000000, 0.000000000000000000, 0.000000000000000000 ) ) ;
#28 = CARTESIAN_POINT ( 'NONE',  ( 4.500000000000000000, 0.000000000000000000, 7.000000000000000000 ) ) ;
#29 = APPLICATION_CONTEXT ( 'configuration controlled 3d designs of mechanical parts and assemblies' ) ;
#30 = AXIS2_PLACEMENT_3D ( 'NONE', #322, #189, #209 ) ;
#31 = ORIENTED_EDGE ( 'NONE', *, *, #286, .F. ) ;
#32 = EDGE_CURVE ( 'NONE', #306, #197, #40, .T. ) ;
#33 = DIRECTION ( 'NONE',  ( 0.000000000000000000, 0.000000000000000000, 1.000000000000000000 ) ) ;
#34 = VERTEX_POINT ( 'NONE', #234 ) ;
#35 = DIRECTION ( 'NONE',  ( 1.000000000000000000, 0.000000000000000000, 0.000000000000000000 ) ) ;
#36 = DIRECTION ( 'NONE',  ( 0.000000000000000000, 0.000000000000000000, 1.000000000000000000 ) ) ;
#37 = MANIFOLD_SOLID_BREP ( 'Imported1', #236 ) ;
#38 = DIRECTION ( 'NONE',  ( 0.000000000000000000, 0.000000000000000000, 1.000000000000000000 ) ) ;
#39 = ORIENTED_EDGE ( 'NONE', *, *, #215, .F. ) ;
#40 = CIRCLE ( 'NONE', #271, 12.50000000000000000 ) ;
#41 = APPROVAL ( #52, 'UNSPECIFIED' ) ;
#42 = ORIENTED_EDGE ( 'NONE', *, *, #229, .T. ) ;
#43 = CARTESIAN_POINT ( 'NONE',  ( 0.000000000000000000, 0.000000000000000000, 40.00000000000000000 ) ) ;
#44 = VERTEX_POINT ( 'NONE', #134 ) ;
#45 = DATE_AND_TIME ( #50, #144 ) ;
#46 = ADVANCED_FACE ( 'NONE', ( #232 ), #183, .T. ) ;
#47 = DIRECTION ( 'NONE',  ( 0.000000000000000000, 0.000000000000000000, 1.000000000000000000 ) ) ;
#48 = PERSON ( 'UNSPECIFIED', 'UNSPECIFIED', 'UNSPECIFIED', ('UNSPECIFIED'), ('UNSPECIFIED'), ('UNSPECIFIED') ) ;
#49 = APPROVAL_PERSON_ORGANIZATION ( #26, #41, #274 ) ;
#50 = CALENDAR_DATE ( 2021, 25, 10 ) ;
#51 = DIRECTION ( 'NONE',  ( 0.000000000000000000, 0.000000000000000000, 1.000000000000000000 ) ) ;
#52 = APPROVAL_STATUS ( 'not_yet_approved' ) ;
#53 = CARTESIAN_POINT ( 'NONE',  ( -7.000000000000000000, 8.572527594031473190E-16, 40.00000000000000000 ) ) ;
#54 = APPROVAL_ROLE ( '' ) ;
#55 = DIRECTION ( 'NONE',  ( 0.000000000000000000, 0.000000000000000000, 1.000000000000000000 ) ) ;
#56 = EDGE_CURVE ( 'NONE', #268, #44, #238, .T. ) ;
#57 = DATE_AND_TIME ( #299, #285 ) ;
#58 = PRODUCT_DEFINITION_FORMATION_WITH_SPECIFIED_SOURCE ( 'ANY', '', #190, .NOT_KNOWN. ) ;
#59 = CARTESIAN_POINT ( 'NONE',  ( 7.000000000000000000, 0.000000000000000000, 7.000000000000000000 ) ) ;
#60 = PLANE ( 'NONE',  #293 ) ;
#61 = VECTOR ( 'NONE', #263, 1000.000000000000000 ) ;
#62 = FACE_OUTER_BOUND ( 'NONE', #292, .T. ) ;
#63 = DIRECTION ( 'NONE',  ( 0.000000000000000000, 0.000000000000000000, 1.000000000000000000 ) ) ;
#64 = CARTESIAN_POINT ( 'NONE',  ( -12.50000000000000000, 1.530808498934191521E-15, 0.000000000000000000 ) ) ;
#65 = EDGE_LOOP ( 'NONE', ( #223, #216, #151, #249 ) ) ;
#66 = PLANE ( 'NONE',  #247 ) ;
#67 = EDGE_LOOP ( 'NONE', ( #120, #251 ) ) ;
#68 = LOCAL_TIME ( 8, 50, 47.00000000000000000, #127 ) ;
#69 = CARTESIAN_POINT ( 'NONE',  ( 7.000000000000000000, 0.000000000000000000, 7.000000000000000000 ) ) ;
#70 = ORIENTED_EDGE ( 'NONE', *, *, #128, .T. ) ;
#71 = PERSON_AND_ORGANIZATION_ROLE ( 'creator' ) ;
#72 = DIRECTION ( 'NONE',  ( 0.000000000000000000, 0.000000000000000000, 1.000000000000000000 ) ) ;
#73 = PERSON_AND_ORGANIZATION ( #48, #83 ) ;
#74 = DIRECTION ( 'NONE',  ( 0.000000000000000000, 0.000000000000000000, 1.000000000000000000 ) ) ;
#75 = CC_DESIGN_APPROVAL ( #41, ( #58 ) ) ;
#76 = DATE_AND_TIME ( #256, #290 ) ;
#77 = DIRECTION ( 'NONE',  ( 1.000000000000000000, 0.000000000000000000, 0.000000000000000000 ) ) ;
#78 = DIRECTION ( 'NONE',  ( 0.000000000000000000, 0.000000000000000000, 1.000000000000000000 ) ) ;
#79 = UNCERTAINTY_MEASURE_WITH_UNIT (LENGTH_MEASURE( 1.000000000000000082E-05 ), #269, 'distance_accuracy_value', 'NONE');
#80 = PERSON_AND_ORGANIZATION_ROLE ( 'creator' ) ;
#81 = CARTESIAN_POINT ( 'NONE',  ( 0.000000000000000000, 0.000000000000000000, 0.000000000000000000 ) ) ;
#82 = APPROVAL_DATE_TIME ( #165, #142 ) ;
#83 = ORGANIZATION ( 'UNSPECIFIED', 'UNSPECIFIED', '' ) ;
#84 = LINE ( 'NONE', #168, #139 ) ;
#85 = CARTESIAN_POINT ( 'NONE',  ( 4.500000000000000000, 0.000000000000000000, 40.00000000000000000 ) ) ;
#86 = DIRECTION ( 'NONE',  ( 1.000000000000000000, 0.000000000000000000, 0.000000000000000000 ) ) ;
#87 = VECTOR ( 'NONE', #55, 1000.000000000000000 ) ;
#88 = VERTEX_POINT ( 'NONE', #23 ) ;
#89 = ADVANCED_FACE ( 'NONE', ( #281, #279 ), #107, .F. ) ;
#90 = CARTESIAN_POINT ( 'NONE',  ( 0.000000000000000000, 0.000000000000000000, 40.00000000000000000 ) ) ;
#91 = ORIENTED_EDGE ( 'NONE', *, *, #103, .T. ) ;
#92 = DIRECTION ( 'NONE',  ( 1.000000000000000000, 0.000000000000000000, 0.000000000000000000 ) ) ;
#93 = ORIENTED_EDGE ( 'NONE', *, *, #282, .T. ) ;
#94 =( GEOMETRIC_REPRESENTATION_CONTEXT ( 3 ) GLOBAL_UNCERTAINTY_ASSIGNED_CONTEXT ( ( #79 ) ) GLOBAL_UNIT_ASSIGNED_CONTEXT ( ( #269, #225, #186 ) ) REPRESENTATION_CONTEXT ( 'NONE', 'WORKASPACE' ) );
#95 = CYLINDRICAL_SURFACE ( 'NONE', #278, 4.500000000000000000 ) ;
#96 = CARTESIAN_POINT ( 'NONE',  ( -4.500000000000000000, 5.510910596163088569E-16, 40.00000000000000000 ) ) ;
#97 = DESIGN_CONTEXT ( 'detailed design', #29, 'design' ) ;
#98 = PERSON_AND_ORGANIZATION ( #48, #83 ) ;
#99 = DIRECTION ( 'NONE',  ( 0.000000000000000000, 0.000000000000000000, -1.000000000000000000 ) ) ;
#100 = PERSON_AND_ORGANIZATION ( #48, #83 ) ;
#101 = DIRECTION ( 'NONE',  ( 0.000000000000000000, 0.000000000000000000, 1.000000000000000000 ) ) ;
#102 = PERSON_AND_ORGANIZATION ( #48, #83 ) ;
#103 = EDGE_CURVE ( 'NONE', #318, #44, #136, .T. ) ;
#104 = CARTESIAN_POINT ( 'NONE',  ( 0.000000000000000000, 0.000000000000000000, 7.000000000000000000 ) ) ;
#105 = DIRECTION ( 'NONE',  ( 0.000000000000000000, 0.000000000000000000, 1.000000000000000000 ) ) ;
#106 = PERSON_AND_ORGANIZATION ( #48, #83 ) ;
#107 = PLANE ( 'NONE',  #199 ) ;
#108 = EDGE_CURVE ( 'NONE', #306, #15, #300, .T. ) ;
#109 = VECTOR ( 'NONE', #105, 1000.000000000000000 ) ;
#110 = AXIS2_PLACEMENT_3D ( 'NONE', #43, #152, #250 ) ;
#111 = CARTESIAN_POINT ( 'NONE',  ( 0.000000000000000000, 0.000000000000000000, 40.00000000000000000 ) ) ;
#112 = DIRECTION ( 'NONE',  ( 1.000000000000000000, 0.000000000000000000, 0.000000000000000000 ) ) ;
#113 = CIRCLE ( 'NONE', #308, 12.50000000000000000 ) ;
#114 = ORIENTED_EDGE ( 'NONE', *, *, #264, .T. ) ;
#115 = CARTESIAN_POINT ( 'NONE',  ( 7.000000000000000000, 0.000000000000000000, 16.00000000000000000 ) ) ;
#116 = DIRECTION ( 'NONE',  ( 1.000000000000000000, 0.000000000000000000, 0.000000000000000000 ) ) ;
#117 = CARTESIAN_POINT ( 'NONE',  ( 4.500000000000000000, 0.000000000000000000, 0.000000000000000000 ) ) ;
#118 = FACE_OUTER_BOUND ( 'NONE', #147, .T. ) ;
#119 = LOCAL_TIME ( 8, 50, 47.00000000000000000, #8 ) ;
#120 = ORIENTED_EDGE ( 'NONE', *, *, #32, .F. ) ;
#121 = EDGE_LOOP ( 'NONE', ( #218, #203 ) ) ;
#122 = ORIENTED_EDGE ( 'NONE', *, *, #56, .F. ) ;
#123 = CC_DESIGN_PERSON_AND_ORGANIZATION_ASSIGNMENT ( #295, #80, ( #196 ) ) ;
#124 = LINE ( 'NONE', #96, #276 ) ;
#125 = AXIS2_PLACEMENT_3D ( 'NONE', #259, #36, #9 ) ;
#126 = CARTESIAN_POINT ( 'NONE',  ( 12.50000000000000000, 0.000000000000000000, 16.00000000000000000 ) ) ;
#127 = COORDINATED_UNIVERSAL_TIME_OFFSET ( 9, 0, .AHEAD. ) ;
#128 = EDGE_CURVE ( 'NONE', #291, #268, #287, .T. ) ;
#129 = DIRECTION ( 'NONE',  ( -1.000000000000000000, 0.000000000000000000, 0.000000000000000000 ) ) ;
#130 = EDGE_CURVE ( 'NONE', #197, #306, #210, .T. ) ;
#131 = APPROVAL_DATE_TIME ( #76, #224 ) ;
#132 = CARTESIAN_POINT ( 'NONE',  ( -12.50000000000000000, 1.530808498934191521E-15, 16.00000000000000000 ) ) ;
#133 = CIRCLE ( 'NONE', #125, 4.500000000000000000 ) ;
#134 = CARTESIAN_POINT ( 'NONE',  ( -7.000000000000000000, 8.572527594031473190E-16, 16.00000000000000000 ) ) ;
#135 = APPROVAL_STATUS ( 'not_yet_approved' ) ;
#136 = LINE ( 'NONE', #53, #87 ) ;
#137 = CC_DESIGN_PERSON_AND_ORGANIZATION_ASSIGNMENT ( #102, #212, ( #149 ) ) ;
#138 = ADVANCED_FACE ( 'NONE', ( #24 ), #325, .F. ) ;
#139 = VECTOR ( 'NONE', #33, 1000.000000000000000 ) ;
#140 = VERTEX_POINT ( 'NONE', #132 ) ;
#141 = CARTESIAN_POINT ( 'NONE',  ( 0.000000000000000000, 0.000000000000000000, 7.000000000000000000 ) ) ;
#142 = APPROVAL ( #156, 'UNSPECIFIED' ) ;
#143 = LINE ( 'NONE', #85, #61 ) ;
#144 = LOCAL_TIME ( 8, 50, 47.00000000000000000, #179 ) ;
#145 = DIRECTION ( 'NONE',  ( 0.000000000000000000, 0.000000000000000000, 1.000000000000000000 ) ) ;
#146 = DIRECTION ( 'NONE',  ( 1.000000000000000000, 0.000000000000000000, 0.000000000000000000 ) ) ;
#147 = EDGE_LOOP ( 'NONE', ( #245, #314, #155, #150 ) ) ;
#148 = CARTESIAN_POINT ( 'NONE',  ( 0.000000000000000000, 0.000000000000000000, 16.00000000000000000 ) ) ;
#149 = SECURITY_CLASSIFICATION ( '', '', #22 ) ;
#150 = ORIENTED_EDGE ( 'NONE', *, *, #182, .T. ) ;
#151 = ORIENTED_EDGE ( 'NONE', *, *, #286, .T. ) ;
#152 = DIRECTION ( 'NONE',  ( 0.000000000000000000, 0.000000000000000000, 1.000000000000000000 ) ) ;
#153 = DATE_TIME_ROLE ( 'classification_date' ) ;
#154 = AXIS2_PLACEMENT_3D ( 'NONE', #90, #47, #252 ) ;
#155 = ORIENTED_EDGE ( 'NONE', *, *, #191, .T. ) ;
#156 = APPROVAL_STATUS ( 'not_yet_approved' ) ;
#157 = DIRECTION ( 'NONE',  ( 1.000000000000000000, 0.000000000000000000, 0.000000000000000000 ) ) ;
#158 = ADVANCED_FACE ( 'NONE', ( #163, #20 ), #60, .F. ) ;
#159 = PERSON_AND_ORGANIZATION_ROLE ( 'design_supplier' ) ;
#160 = CARTESIAN_POINT ( 'NONE',  ( 0.000000000000000000, 0.000000000000000000, 0.000000000000000000 ) ) ;
#161 = CIRCLE ( 'NONE', #228, 7.000000000000000000 ) ;
#162 = DIRECTION ( 'NONE',  ( 0.000000000000000000, 0.000000000000000000, -1.000000000000000000 ) ) ;
#163 = FACE_BOUND ( 'NONE', #174, .T. ) ;
#164 = ADVANCED_BREP_SHAPE_REPRESENTATION ( 'bj300-08016', ( #37, #175 ), #94 ) ;
#165 = DATE_AND_TIME ( #288, #119 ) ;
#166 = ORIENTED_EDGE ( 'NONE', *, *, #229, .F. ) ;
#167 = CC_DESIGN_SECURITY_CLASSIFICATION ( #149, ( #58 ) ) ;
#168 = CARTESIAN_POINT ( 'NONE',  ( -12.50000000000000000, 1.530808498934191521E-15, 40.00000000000000000 ) ) ;
#169 = ORIENTED_EDGE ( 'NONE', *, *, #130, .T. ) ;
#170 = CC_DESIGN_DATE_AND_TIME_ASSIGNMENT ( #57, #326, ( #196 ) ) ;
#171 = VECTOR ( 'NONE', #101, 1000.000000000000000 ) ;
#172 = FACE_OUTER_BOUND ( 'NONE', #200, .T. ) ;
#173 = ORIENTED_EDGE ( 'NONE', *, *, #264, .F. ) ;
#174 = EDGE_LOOP ( 'NONE', ( #122, #166 ) ) ;
#175 = AXIS2_PLACEMENT_3D ( 'NONE', #160, #277, #19 ) ;
#176 = EDGE_LOOP ( 'NONE', ( #289, #31 ) ) ;
#177 = CYLINDRICAL_SURFACE ( 'NONE', #110, 7.000000000000000000 ) ;
#178 = ORIENTED_EDGE ( 'NONE', *, *, #21, .F. ) ;
#179 = COORDINATED_UNIVERSAL_TIME_OFFSET ( 9, 0, .AHEAD. ) ;
#180 = FACE_OUTER_BOUND ( 'NONE', #6, .T. ) ;
#181 = COORDINATED_UNIVERSAL_TIME_OFFSET ( 9, 0, .AHEAD. ) ;
#182 = EDGE_CURVE ( 'NONE', #201, #88, #313, .T. ) ;
#183 = CYLINDRICAL_SURFACE ( 'NONE', #30, 12.50000000000000000 ) ;
#184 = APPROVAL_PERSON_ORGANIZATION ( #208, #224, #54 ) ;
#185 = DIRECTION ( 'NONE',  ( 0.000000000000000000, 0.000000000000000000, 1.000000000000000000 ) ) ;
#186 =( NAMED_UNIT ( * ) SI_UNIT ( $, .STERADIAN. ) SOLID_ANGLE_UNIT ( ) );
#187 = CARTESIAN_POINT ( 'NONE',  ( 0.000000000000000000, 0.000000000000000000, 40.00000000000000000 ) ) ;
#188 = APPLICATION_PROTOCOL_DEFINITION ( 'international standard', 'config_control_design', 1994, #29 ) ;
#189 = DIRECTION ( 'NONE',  ( 0.000000000000000000, 0.000000000000000000, 1.000000000000000000 ) ) ;
#190 = PRODUCT ( 'bj300-08016', 'bj300-08016', '', ( #301 ) ) ;
#191 = EDGE_CURVE ( 'NONE', #14, #201, #143, .T. ) ;
#192 = DIRECTION ( 'NONE',  ( 1.000000000000000000, 0.000000000000000000, 0.000000000000000000 ) ) ;
#193 = ORIENTED_EDGE ( 'NONE', *, *, #215, .T. ) ;
#194 = EDGE_CURVE ( 'NONE', #34, #14, #133, .T. ) ;
#195 = CARTESIAN_POINT ( 'NONE',  ( 0.000000000000000000, 0.000000000000000000, 7.000000000000000000 ) ) ;
#196 = PRODUCT_DEFINITION ( 'UNKNOWN', '', #58, #97 ) ;
#197 = VERTEX_POINT ( 'NONE', #64 ) ;
#198 = DIRECTION ( 'NONE',  ( 1.000000000000000000, 0.000000000000000000, 0.000000000000000000 ) ) ;
#199 = AXIS2_PLACEMENT_3D ( 'NONE', #59, #162, #129 ) ;
#200 = EDGE_LOOP ( 'NONE', ( #17, #39, #70, #315 ) ) ;
#201 = VERTEX_POINT ( 'NONE', #28 ) ;
#202 = CC_DESIGN_DATE_AND_TIME_ASSIGNMENT ( #45, #153, ( #149 ) ) ;
#203 = ORIENTED_EDGE ( 'NONE', *, *, #21, .T. ) ;
#204 = CIRCLE ( 'NONE', #3, 12.50000000000000000 ) ;
#205 = CIRCLE ( 'NONE', #213, 4.500000000000000000 ) ;
#206 = ORIENTED_EDGE ( 'NONE', *, *, #283, .T. ) ;
#207 = EDGE_LOOP ( 'NONE', ( #193, #114 ) ) ;
#208 = PERSON_AND_ORGANIZATION ( #48, #83 ) ;
#209 = DIRECTION ( 'NONE',  ( 1.000000000000000000, 0.000000000000000000, 0.000000000000000000 ) ) ;
#210 = CIRCLE ( 'NONE', #265, 12.50000000000000000 ) ;
#211 = APPLICATION_PROTOCOL_DEFINITION ( 'international standard', 'config_control_design', 1994, #230 ) ;
#212 = PERSON_AND_ORGANIZATION_ROLE ( 'classification_officer' ) ;
#213 = AXIS2_PLACEMENT_3D ( 'NONE', #219, #309, #112 ) ;
#214 = DIRECTION ( 'NONE',  ( 0.000000000000000000, 0.000000000000000000, 1.000000000000000000 ) ) ;
#215 = EDGE_CURVE ( 'NONE', #291, #318, #303, .T. ) ;
#216 = ORIENTED_EDGE ( 'NONE', *, *, #7, .T. ) ;
#217 = AXIS2_PLACEMENT_3D ( 'NONE', #195, #304, #242 ) ;
#218 = ORIENTED_EDGE ( 'NONE', *, *, #317, .T. ) ;
#219 = CARTESIAN_POINT ( 'NONE',  ( 0.000000000000000000, 0.000000000000000000, 0.000000000000000000 ) ) ;
#220 = CARTESIAN_POINT ( 'NONE',  ( 0.000000000000000000, 0.000000000000000000, 40.00000000000000000 ) ) ;
#221 = EDGE_LOOP ( 'NONE', ( #240, #206, #248, #10 ) ) ;
#222 = AXIS2_PLACEMENT_3D ( 'NONE', #104, #51, #198 ) ;
#223 = ORIENTED_EDGE ( 'NONE', *, *, #194, .F. ) ;
#224 = APPROVAL ( #135, 'UNSPECIFIED' ) ;
#225 =( NAMED_UNIT ( * ) PLANE_ANGLE_UNIT ( ) SI_UNIT ( $, .RADIAN. ) );
#226 = ORIENTED_EDGE ( 'NONE', *, *, #283, .F. ) ;
#227 = DIRECTION ( 'NONE',  ( 0.000000000000000000, 0.000000000000000000, 1.000000000000000000 ) ) ;
#228 = AXIS2_PLACEMENT_3D ( 'NONE', #305, #145, #237 ) ;
#229 = EDGE_CURVE ( 'NONE', #44, #268, #161, .T. ) ;
#230 = APPLICATION_CONTEXT ( 'configuration controlled 3d designs of mechanical parts and assemblies' ) ;
#231 = CARTESIAN_POINT ( 'NONE',  ( 0.000000000000000000, 0.000000000000000000, 16.00000000000000000 ) ) ;
#232 = FACE_OUTER_BOUND ( 'NONE', #221, .T. ) ;
#233 = PRODUCT_RELATED_PRODUCT_CATEGORY ( 'detail', '', ( #190 ) ) ;
#234 = CARTESIAN_POINT ( 'NONE',  ( -4.500000000000000000, 5.510910596163088569E-16, 0.000000000000000000 ) ) ;
#235 = CALENDAR_DATE ( 2021, 25, 10 ) ;
#236 = CLOSED_SHELL ( 'NONE', ( #267, #46, #138, #89, #323, #310, #12, #158, #297 ) ) ;
#237 = DIRECTION ( 'NONE',  ( 1.000000000000000000, 0.000000000000000000, 0.000000000000000000 ) ) ;
#238 = CIRCLE ( 'NONE', #25, 7.000000000000000000 ) ;
#239 = CARTESIAN_POINT ( 'NONE',  ( 0.000000000000000000, 0.000000000000000000, 7.000000000000000000 ) ) ;
#240 = ORIENTED_EDGE ( 'NONE', *, *, #32, .T. ) ;
#241 = AXIS2_PLACEMENT_3D ( 'NONE', #239, #63, #35 ) ;
#242 = DIRECTION ( 'NONE',  ( 1.000000000000000000, 0.000000000000000000, 0.000000000000000000 ) ) ;
#243 = FACE_OUTER_BOUND ( 'NONE', #67, .T. ) ;
#244 = DIRECTION ( 'NONE',  ( 0.000000000000000000, 0.000000000000000000, 1.000000000000000000 ) ) ;
#245 = ORIENTED_EDGE ( 'NONE', *, *, #7, .F. ) ;
#246 = CC_DESIGN_PERSON_AND_ORGANIZATION_ASSIGNMENT ( #100, #324, ( #190 ) ) ;
#247 = AXIS2_PLACEMENT_3D ( 'NONE', #311, #38, #116 ) ;
#248 = ORIENTED_EDGE ( 'NONE', *, *, #317, .F. ) ;
#249 = ORIENTED_EDGE ( 'NONE', *, *, #191, .F. ) ;
#250 = DIRECTION ( 'NONE',  ( 1.000000000000000000, 0.000000000000000000, 0.000000000000000000 ) ) ;
#251 = ORIENTED_EDGE ( 'NONE', *, *, #130, .F. ) ;
#252 = DIRECTION ( 'NONE',  ( 1.000000000000000000, 0.000000000000000000, 0.000000000000000000 ) ) ;
#253 = APPROVAL_ROLE ( '' ) ;
#254 = DIRECTION ( 'NONE',  ( 1.000000000000000000, 0.000000000000000000, 0.000000000000000000 ) ) ;
#255 = CC_DESIGN_PERSON_AND_ORGANIZATION_ASSIGNMENT ( #106, #159, ( #58 ) ) ;
#256 = CALENDAR_DATE ( 2021, 25, 10 ) ;
#257 = DIRECTION ( 'NONE',  ( 1.000000000000000000, 0.000000000000000000, 0.000000000000000000 ) ) ;
#258 = CARTESIAN_POINT ( 'NONE',  ( 7.000000000000000000, 0.000000000000000000, 40.00000000000000000 ) ) ;
#259 = CARTESIAN_POINT ( 'NONE',  ( 0.000000000000000000, 0.000000000000000000, 0.000000000000000000 ) ) ;
#260 = EDGE_LOOP ( 'NONE', ( #93, #270 ) ) ;
#261 = APPROVAL_PERSON_ORGANIZATION ( #73, #142, #253 ) ;
#262 = CYLINDRICAL_SURFACE ( 'NONE', #18, 7.000000000000000000 ) ;
#263 = DIRECTION ( 'NONE',  ( 0.000000000000000000, 0.000000000000000000, 1.000000000000000000 ) ) ;
#264 = EDGE_CURVE ( 'NONE', #318, #291, #272, .T. ) ;
#265 = AXIS2_PLACEMENT_3D ( 'NONE', #27, #78, #254 ) ;
#266 = CARTESIAN_POINT ( 'NONE',  ( 12.50000000000000000, 0.000000000000000000, 0.000000000000000000 ) ) ;
#267 = ADVANCED_FACE ( 'NONE', ( #62 ), #262, .F. ) ;
#268 = VERTEX_POINT ( 'NONE', #115 ) ;
#269 =( LENGTH_UNIT ( ) NAMED_UNIT ( * ) SI_UNIT ( .MILLI., .METRE. ) );
#270 = ORIENTED_EDGE ( 'NONE', *, *, #194, .T. ) ;
#271 = AXIS2_PLACEMENT_3D ( 'NONE', #81, #185, #192 ) ;
#272 = CIRCLE ( 'NONE', #217, 7.000000000000000000 ) ;
#273 = ORIENTED_EDGE ( 'NONE', *, *, #108, .T. ) ;
#274 = APPROVAL_ROLE ( '' ) ;
#275 = CYLINDRICAL_SURFACE ( 'NONE', #154, 12.50000000000000000 ) ;
#276 = VECTOR ( 'NONE', #72, 1000.000000000000000 ) ;
#277 = DIRECTION ( 'NONE',  ( 0.000000000000000000, 0.000000000000000000, 1.000000000000000000 ) ) ;
#278 = AXIS2_PLACEMENT_3D ( 'NONE', #220, #244, #86 ) ;
#279 = FACE_OUTER_BOUND ( 'NONE', #207, .T. ) ;
#280 = COORDINATED_UNIVERSAL_TIME_OFFSET ( 9, 0, .AHEAD. ) ;
#281 = FACE_BOUND ( 'NONE', #176, .T. ) ;
#282 = EDGE_CURVE ( 'NONE', #14, #34, #205, .T. ) ;
#283 = EDGE_CURVE ( 'NONE', #197, #140, #84, .T. ) ;
#284 = CARTESIAN_POINT ( 'NONE',  ( 0.000000000000000000, 0.000000000000000000, 16.00000000000000000 ) ) ;
#285 = LOCAL_TIME ( 8, 50, 47.00000000000000000, #280 ) ;
#286 = EDGE_CURVE ( 'NONE', #88, #201, #11, .T. ) ;
#287 = LINE ( 'NONE', #258, #109 ) ;
#288 = CALENDAR_DATE ( 2021, 25, 10 ) ;
#289 = ORIENTED_EDGE ( 'NONE', *, *, #182, .F. ) ;
#290 = LOCAL_TIME ( 8, 50, 47.00000000000000000, #181 ) ;
#291 = VERTEX_POINT ( 'NONE', #69 ) ;
#292 = EDGE_LOOP ( 'NONE', ( #173, #91, #42, #294 ) ) ;
#293 = AXIS2_PLACEMENT_3D ( 'NONE', #126, #99, #1 ) ;
#294 = ORIENTED_EDGE ( 'NONE', *, *, #128, .F. ) ;
#295 = PERSON_AND_ORGANIZATION ( #48, #83 ) ;
#296 = CC_DESIGN_APPROVAL ( #142, ( #149 ) ) ;
#297 = ADVANCED_FACE ( 'NONE', ( #172 ), #177, .F. ) ;
#298 = DIRECTION ( 'NONE',  ( 0.000000000000000000, 0.000000000000000000, 1.000000000000000000 ) ) ;
#299 = CALENDAR_DATE ( 2021, 25, 10 ) ;
#300 = LINE ( 'NONE', #327, #171 ) ;
#301 = MECHANICAL_CONTEXT ( 'NONE', #230, 'mechanical' ) ;
#302 = SHAPE_DEFINITION_REPRESENTATION ( #2, #164 ) ;
#303 = CIRCLE ( 'NONE', #241, 7.000000000000000000 ) ;
#304 = DIRECTION ( 'NONE',  ( 0.000000000000000000, 0.000000000000000000, 1.000000000000000000 ) ) ;
#305 = CARTESIAN_POINT ( 'NONE',  ( 0.000000000000000000, 0.000000000000000000, 16.00000000000000000 ) ) ;
#306 = VERTEX_POINT ( 'NONE', #266 ) ;
#307 = CC_DESIGN_PERSON_AND_ORGANIZATION_ASSIGNMENT ( #98, #71, ( #58 ) ) ;
#308 = AXIS2_PLACEMENT_3D ( 'NONE', #148, #227, #146 ) ;
#309 = DIRECTION ( 'NONE',  ( 0.000000000000000000, 0.000000000000000000, 1.000000000000000000 ) ) ;
#310 = ADVANCED_FACE ( 'NONE', ( #243, #16 ), #66, .F. ) ;
#311 = CARTESIAN_POINT ( 'NONE',  ( 4.500000000000000000, 0.000000000000000000, 0.000000000000000000 ) ) ;
#312 = CARTESIAN_POINT ( 'NONE',  ( 12.50000000000000000, 0.000000000000000000, 16.00000000000000000 ) ) ;
#313 = CIRCLE ( 'NONE', #222, 4.500000000000000000 ) ;
#314 = ORIENTED_EDGE ( 'NONE', *, *, #282, .F. ) ;
#315 = ORIENTED_EDGE ( 'NONE', *, *, #56, .T. ) ;
#316 = DIRECTION ( 'NONE',  ( 0.000000000000000000, 0.000000000000000000, 1.000000000000000000 ) ) ;
#317 = EDGE_CURVE ( 'NONE', #15, #140, #113, .T. ) ;
#318 = VERTEX_POINT ( 'NONE', #320 ) ;
#319 = AXIS2_PLACEMENT_3D ( 'NONE', #141, #316, #92 ) ;
#320 = CARTESIAN_POINT ( 'NONE',  ( -7.000000000000000000, 8.572527594031473190E-16, 7.000000000000000000 ) ) ;
#321 = APPROVAL_DATE_TIME ( #329, #41 ) ;
#322 = CARTESIAN_POINT ( 'NONE',  ( 0.000000000000000000, 0.000000000000000000, 40.00000000000000000 ) ) ;
#323 = ADVANCED_FACE ( 'NONE', ( #118 ), #95, .F. ) ;
#324 = PERSON_AND_ORGANIZATION_ROLE ( 'design_owner' ) ;
#325 = CYLINDRICAL_SURFACE ( 'NONE', #13, 4.500000000000000000 ) ;
#326 = DATE_TIME_ROLE ( 'creation_date' ) ;
#327 = CARTESIAN_POINT ( 'NONE',  ( 12.50000000000000000, 0.000000000000000000, 40.00000000000000000 ) ) ;
#328 = DIRECTION ( 'NONE',  ( 0.000000000000000000, 0.000000000000000000, 1.000000000000000000 ) ) ;
#329 = DATE_AND_TIME ( #235, #68 ) ;
ENDSEC;
END-ISO-10303-21;
