ISO-10303-21;
HEADER;
FILE_DESCRIPTION (( 'STEP AP203' ),
    '1' );
FILE_NAME ('bj623-12001.STEP',
    '2021-10-24T23:57:34',
    ( '' ),
    ( '' ),
    'SwSTEP 2.0',
    'SolidWorks 2020',
    '' );
FILE_SCHEMA (( 'CONFIG_CONTROL_DESIGN' ));
ENDSEC;

DATA;
#1 = ORIENTED_EDGE ( 'NONE', *, *, #101, .F. ) ;
#2 = CARTESIAN_POINT ( 'NONE',  ( 20.00000000000000000, 2.449293598294706513E-15, 5.000000000000000000 ) ) ;
#3 = APPROVAL_PERSON_ORGANIZATION ( #189, #52, #10 ) ;
#4 = DIRECTION ( 'NONE',  ( 1.000000000000000000, 0.000000000000000000, 0.000000000000000000 ) ) ;
#5 =( NAMED_UNIT ( * ) SI_UNIT ( $, .STERADIAN. ) SOLID_ANGLE_UNIT ( ) );
#6 = CC_DESIGN_PERSON_AND_ORGANIZATION_ASSIGNMENT ( #119, #226, ( #174 ) ) ;
#7 = CYLINDRICAL_SURFACE ( 'NONE', #76, 6.500000000000000000 ) ;
#8 = CARTESIAN_POINT ( 'NONE',  ( 0.000000000000000000, 0.000000000000000000, 5.000000000000000000 ) ) ;
#9 = PERSON_AND_ORGANIZATION_ROLE ( 'classification_officer' ) ;
#10 = APPROVAL_ROLE ( '' ) ;
#11 = AXIS2_PLACEMENT_3D ( 'NONE', #215, #83, #233 ) ;
#12 = MANIFOLD_SOLID_BREP ( 'Imported1', #86 ) ;
#13 = APPLICATION_PROTOCOL_DEFINITION ( 'international standard', 'config_control_design', 1994, #236 ) ;
#14 = PERSON_AND_ORGANIZATION ( #152, #147 ) ;
#15 = COORDINATED_UNIVERSAL_TIME_OFFSET ( 9, 0, .AHEAD. ) ;
#16 = ORIENTED_EDGE ( 'NONE', *, *, #59, .T. ) ;
#17 = DIRECTION ( 'NONE',  ( -1.000000000000000000, 0.000000000000000000, 0.000000000000000000 ) ) ;
#18 = AXIS2_PLACEMENT_3D ( 'NONE', #111, #204, #26 ) ;
#19 = VERTEX_POINT ( 'NONE', #2 ) ;
#20 = VERTEX_POINT ( 'NONE', #167 ) ;
#21 = EDGE_CURVE ( 'NONE', #197, #20, #228, .T. ) ;
#22 = ORIENTED_EDGE ( 'NONE', *, *, #237, .F. ) ;
#23 =( GEOMETRIC_REPRESENTATION_CONTEXT ( 3 ) GLOBAL_UNCERTAINTY_ASSIGNED_CONTEXT ( ( #75 ) ) GLOBAL_UNIT_ASSIGNED_CONTEXT ( ( #157, #170, #5 ) ) REPRESENTATION_CONTEXT ( 'NONE', 'WORKASPACE' ) );
#24 = CARTESIAN_POINT ( 'NONE',  ( 0.000000000000000000, 0.000000000000000000, 0.000000000000000000 ) ) ;
#25 = PRODUCT_DEFINITION ( 'UNKNOWN', '', #174, #212 ) ;
#26 = DIRECTION ( 'NONE',  ( 1.000000000000000000, 0.000000000000000000, 0.000000000000000000 ) ) ;
#27 = CARTESIAN_POINT ( 'NONE',  ( 6.500000000000000000, 7.960204194457795477E-16, 5.000000000000000000 ) ) ;
#28 = APPROVAL_PERSON_ORGANIZATION ( #137, #193, #99 ) ;
#29 = COORDINATED_UNIVERSAL_TIME_OFFSET ( 9, 0, .AHEAD. ) ;
#30 = SHAPE_DEFINITION_REPRESENTATION ( #243, #110 ) ;
#31 = PERSON_AND_ORGANIZATION_ROLE ( 'creator' ) ;
#32 = VECTOR ( 'NONE', #47, 1000.000000000000000 ) ;
#33 = CC_DESIGN_DATE_AND_TIME_ASSIGNMENT ( #210, #192, ( #222 ) ) ;
#34 = PERSON_AND_ORGANIZATION_ROLE ( 'design_supplier' ) ;
#35 = ORIENTED_EDGE ( 'NONE', *, *, #21, .F. ) ;
#36 = DIRECTION ( 'NONE',  ( 0.000000000000000000, 0.000000000000000000, -1.000000000000000000 ) ) ;
#37 = EDGE_CURVE ( 'NONE', #19, #40, #219, .T. ) ;
#38 = VERTEX_POINT ( 'NONE', #107 ) ;
#39 = DIRECTION ( 'NONE',  ( -1.000000000000000000, 0.000000000000000000, 0.000000000000000000 ) ) ;
#40 = VERTEX_POINT ( 'NONE', #182 ) ;
#41 = AXIS2_PLACEMENT_3D ( 'NONE', #144, #79, #39 ) ;
#42 = CARTESIAN_POINT ( 'NONE',  ( 20.00000000000000000, 2.449293598294706513E-15, 5.000000000000000000 ) ) ;
#43 = CARTESIAN_POINT ( 'NONE',  ( -6.500000000000000000, 0.000000000000000000, 5.000000000000000000 ) ) ;
#44 = DIRECTION ( 'NONE',  ( 0.000000000000000000, 0.000000000000000000, 1.000000000000000000 ) ) ;
#45 = CC_DESIGN_PERSON_AND_ORGANIZATION_ASSIGNMENT ( #14, #190, ( #96 ) ) ;
#46 = LINE ( 'NONE', #27, #32 ) ;
#47 = DIRECTION ( 'NONE',  ( 0.000000000000000000, 0.000000000000000000, -1.000000000000000000 ) ) ;
#48 = AXIS2_PLACEMENT_3D ( 'NONE', #93, #173, #53 ) ;
#49 = PLANE ( 'NONE',  #249 ) ;
#50 = PERSON_AND_ORGANIZATION ( #152, #147 ) ;
#51 = DATE_AND_TIME ( #97, #109 ) ;
#52 = APPROVAL ( #229, 'UNSPECIFIED' ) ;
#53 = DIRECTION ( 'NONE',  ( 1.000000000000000000, 0.000000000000000000, 0.000000000000000000 ) ) ;
#54 = CIRCLE ( 'NONE', #18, 20.00000000000000000 ) ;
#55 = CALENDAR_DATE ( 2021, 25, 10 ) ;
#56 = ORIENTED_EDGE ( 'NONE', *, *, #216, .T. ) ;
#57 = ORIENTED_EDGE ( 'NONE', *, *, #169, .F. ) ;
#58 = ORIENTED_EDGE ( 'NONE', *, *, #149, .F. ) ;
#59 = EDGE_CURVE ( 'NONE', #38, #20, #85, .T. ) ;
#60 = ORIENTED_EDGE ( 'NONE', *, *, #91, .F. ) ;
#61 = FACE_BOUND ( 'NONE', #77, .T. ) ;
#62 = ORIENTED_EDGE ( 'NONE', *, *, #91, .T. ) ;
#63 = AXIS2_PLACEMENT_3D ( 'NONE', #8, #186, #185 ) ;
#64 = EDGE_LOOP ( 'NONE', ( #102, #166, #168, #60 ) ) ;
#65 = EDGE_LOOP ( 'NONE', ( #82, #196, #62, #200 ) ) ;
#66 = DIRECTION ( 'NONE',  ( 0.000000000000000000, 0.000000000000000000, 1.000000000000000000 ) ) ;
#67 = DIRECTION ( 'NONE',  ( 1.000000000000000000, 0.000000000000000000, 0.000000000000000000 ) ) ;
#68 = AXIS2_PLACEMENT_3D ( 'NONE', #231, #36, #17 ) ;
#69 = DIRECTION ( 'NONE',  ( 0.000000000000000000, 0.000000000000000000, 1.000000000000000000 ) ) ;
#70 = CC_DESIGN_APPROVAL ( #52, ( #174 ) ) ;
#71 = CALENDAR_DATE ( 2021, 25, 10 ) ;
#72 = PERSON_AND_ORGANIZATION ( #152, #147 ) ;
#73 = ADVANCED_FACE ( 'NONE', ( #177 ), #247, .F. ) ;
#74 = SECURITY_CLASSIFICATION_LEVEL ( 'unclassified' ) ;
#75 = UNCERTAINTY_MEASURE_WITH_UNIT (LENGTH_MEASURE( 1.000000000000000082E-05 ), #157, 'distance_accuracy_value', 'NONE');
#76 = AXIS2_PLACEMENT_3D ( 'NONE', #239, #129, #113 ) ;
#77 = EDGE_LOOP ( 'NONE', ( #150, #84 ) ) ;
#78 = DATE_TIME_ROLE ( 'creation_date' ) ;
#79 = DIRECTION ( 'NONE',  ( 0.000000000000000000, 0.000000000000000000, -1.000000000000000000 ) ) ;
#80 = DIRECTION ( 'NONE',  ( 0.000000000000000000, 0.000000000000000000, -1.000000000000000000 ) ) ;
#81 = CIRCLE ( 'NONE', #100, 20.00000000000000000 ) ;
#82 = ORIENTED_EDGE ( 'NONE', *, *, #37, .F. ) ;
#83 = DIRECTION ( 'NONE',  ( 0.000000000000000000, 0.000000000000000000, 1.000000000000000000 ) ) ;
#84 = ORIENTED_EDGE ( 'NONE', *, *, #21, .T. ) ;
#85 = LINE ( 'NONE', #43, #133 ) ;
#86 = CLOSED_SHELL ( 'NONE', ( #139, #245, #114, #95, #88, #73 ) ) ;
#87 = CYLINDRICAL_SURFACE ( 'NONE', #179, 20.00000000000000000 ) ;
#88 = ADVANCED_FACE ( 'NONE', ( #103 ), #164, .T. ) ;
#89 = LOCAL_TIME ( 8, 57, 34.00000000000000000, #141 ) ;
#90 = CARTESIAN_POINT ( 'NONE',  ( 0.000000000000000000, 0.000000000000000000, 0.000000000000000000 ) ) ;
#91 = EDGE_CURVE ( 'NONE', #220, #181, #178, .T. ) ;
#92 = CARTESIAN_POINT ( 'NONE',  ( 0.000000000000000000, 0.000000000000000000, 5.000000000000000000 ) ) ;
#93 = CARTESIAN_POINT ( 'NONE',  ( 0.000000000000000000, 0.000000000000000000, 0.000000000000000000 ) ) ;
#94 = APPROVAL_DATE_TIME ( #51, #240 ) ;
#95 = ADVANCED_FACE ( 'NONE', ( #232, #61 ), #146, .F. ) ;
#96 = PRODUCT ( 'bj623-12001', 'bj623-12001', '', ( #244 ) ) ;
#97 = CALENDAR_DATE ( 2021, 25, 10 ) ;
#98 = APPROVAL_STATUS ( 'not_yet_approved' ) ;
#99 = APPROVAL_ROLE ( '' ) ;
#100 = AXIS2_PLACEMENT_3D ( 'NONE', #90, #69, #207 ) ;
#101 = EDGE_CURVE ( 'NONE', #140, #197, #46, .T. ) ;
#102 = ORIENTED_EDGE ( 'NONE', *, *, #124, .F. ) ;
#103 = FACE_OUTER_BOUND ( 'NONE', #65, .T. ) ;
#104 = CC_DESIGN_DATE_AND_TIME_ASSIGNMENT ( #159, #78, ( #25 ) ) ;
#105 = DIRECTION ( 'NONE',  ( 0.000000000000000000, 0.000000000000000000, 1.000000000000000000 ) ) ;
#106 = ORIENTED_EDGE ( 'NONE', *, *, #145, .T. ) ;
#107 = CARTESIAN_POINT ( 'NONE',  ( -6.500000000000000000, 0.000000000000000000, 5.000000000000000000 ) ) ;
#108 = DIRECTION ( 'NONE',  ( 1.000000000000000000, 0.000000000000000000, 0.000000000000000000 ) ) ;
#109 = LOCAL_TIME ( 8, 57, 34.00000000000000000, #29 ) ;
#110 = ADVANCED_BREP_SHAPE_REPRESENTATION ( 'bj623-12001', ( #12, #48 ), #23 ) ;
#111 = CARTESIAN_POINT ( 'NONE',  ( 0.000000000000000000, 0.000000000000000000, 0.000000000000000000 ) ) ;
#112 = DIRECTION ( 'NONE',  ( -1.000000000000000000, 0.000000000000000000, 0.000000000000000000 ) ) ;
#113 = DIRECTION ( 'NONE',  ( -1.000000000000000000, 0.000000000000000000, 0.000000000000000000 ) ) ;
#114 = ADVANCED_FACE ( 'NONE', ( #155, #130 ), #49, .T. ) ;
#115 = CIRCLE ( 'NONE', #234, 6.500000000000000000 ) ;
#116 = CIRCLE ( 'NONE', #191, 6.500000000000000000 ) ;
#117 = CARTESIAN_POINT ( 'NONE',  ( 0.000000000000000000, 0.000000000000000000, 5.000000000000000000 ) ) ;
#118 = APPROVAL_STATUS ( 'not_yet_approved' ) ;
#119 = PERSON_AND_ORGANIZATION ( #152, #147 ) ;
#120 = APPROVAL_DATE_TIME ( #160, #52 ) ;
#121 = APPROVAL_ROLE ( '' ) ;
#122 = ORIENTED_EDGE ( 'NONE', *, *, #124, .T. ) ;
#123 = EDGE_LOOP ( 'NONE', ( #22, #128 ) ) ;
#124 = EDGE_CURVE ( 'NONE', #19, #220, #183, .T. ) ;
#125 = CARTESIAN_POINT ( 'NONE',  ( 0.000000000000000000, 0.000000000000000000, 0.000000000000000000 ) ) ;
#126 = ORIENTED_EDGE ( 'NONE', *, *, #216, .F. ) ;
#127 = DIRECTION ( 'NONE',  ( 0.000000000000000000, 0.000000000000000000, -1.000000000000000000 ) ) ;
#128 = ORIENTED_EDGE ( 'NONE', *, *, #205, .F. ) ;
#129 = DIRECTION ( 'NONE',  ( 0.000000000000000000, 0.000000000000000000, -1.000000000000000000 ) ) ;
#130 = FACE_BOUND ( 'NONE', #148, .T. ) ;
#131 = CC_DESIGN_PERSON_AND_ORGANIZATION_ASSIGNMENT ( #227, #9, ( #222 ) ) ;
#132 = APPLICATION_PROTOCOL_DEFINITION ( 'international standard', 'config_control_design', 1994, #134 ) ;
#133 = VECTOR ( 'NONE', #202, 1000.000000000000000 ) ;
#134 = APPLICATION_CONTEXT ( 'configuration controlled 3d designs of mechanical parts and assemblies' ) ;
#135 = APPROVAL_DATE_TIME ( #162, #193 ) ;
#136 = AXIS2_PLACEMENT_3D ( 'NONE', #125, #105, #180 ) ;
#137 = PERSON_AND_ORGANIZATION ( #152, #147 ) ;
#138 = CALENDAR_DATE ( 2021, 25, 10 ) ;
#139 = ADVANCED_FACE ( 'NONE', ( #184 ), #7, .F. ) ;
#140 = VERTEX_POINT ( 'NONE', #172 ) ;
#141 = COORDINATED_UNIVERSAL_TIME_OFFSET ( 9, 0, .AHEAD. ) ;
#142 = EDGE_LOOP ( 'NONE', ( #106, #122 ) ) ;
#143 = CC_DESIGN_APPROVAL ( #240, ( #222 ) ) ;
#144 = CARTESIAN_POINT ( 'NONE',  ( 0.000000000000000000, 0.000000000000000000, 5.000000000000000000 ) ) ;
#145 = EDGE_CURVE ( 'NONE', #220, #19, #171, .T. ) ;
#146 = PLANE ( 'NONE',  #136 ) ;
#147 = ORGANIZATION ( 'UNSPECIFIED', 'UNSPECIFIED', '' ) ;
#148 = EDGE_LOOP ( 'NONE', ( #126, #58 ) ) ;
#149 = EDGE_CURVE ( 'NONE', #140, #38, #218, .T. ) ;
#150 = ORIENTED_EDGE ( 'NONE', *, *, #169, .T. ) ;
#151 = DIRECTION ( 'NONE',  ( 0.000000000000000000, 0.000000000000000000, -1.000000000000000000 ) ) ;
#152 = PERSON ( 'UNSPECIFIED', 'UNSPECIFIED', 'UNSPECIFIED', ('UNSPECIFIED'), ('UNSPECIFIED'), ('UNSPECIFIED') ) ;
#153 = FACE_OUTER_BOUND ( 'NONE', #64, .T. ) ;
#154 = CC_DESIGN_PERSON_AND_ORGANIZATION_ASSIGNMENT ( #72, #31, ( #25 ) ) ;
#155 = FACE_OUTER_BOUND ( 'NONE', #142, .T. ) ;
#156 = CARTESIAN_POINT ( 'NONE',  ( 0.000000000000000000, 0.000000000000000000, 5.000000000000000000 ) ) ;
#157 =( LENGTH_UNIT ( ) NAMED_UNIT ( * ) SI_UNIT ( .MILLI., .METRE. ) );
#158 = LOCAL_TIME ( 8, 57, 34.00000000000000000, #211 ) ;
#159 = DATE_AND_TIME ( #71, #195 ) ;
#160 = DATE_AND_TIME ( #194, #158 ) ;
#161 = AXIS2_PLACEMENT_3D ( 'NONE', #92, #66, #242 ) ;
#162 = DATE_AND_TIME ( #138, #176 ) ;
#163 = PERSON_AND_ORGANIZATION ( #152, #147 ) ;
#164 = CYLINDRICAL_SURFACE ( 'NONE', #68, 20.00000000000000000 ) ;
#165 = VECTOR ( 'NONE', #127, 1000.000000000000000 ) ;
#166 = ORIENTED_EDGE ( 'NONE', *, *, #37, .T. ) ;
#167 = CARTESIAN_POINT ( 'NONE',  ( -6.500000000000000000, 0.000000000000000000, 0.000000000000000000 ) ) ;
#168 = ORIENTED_EDGE ( 'NONE', *, *, #205, .T. ) ;
#169 = EDGE_CURVE ( 'NONE', #20, #197, #116, .T. ) ;
#170 =( NAMED_UNIT ( * ) PLANE_ANGLE_UNIT ( ) SI_UNIT ( $, .RADIAN. ) );
#171 = CIRCLE ( 'NONE', #63, 20.00000000000000000 ) ;
#172 = CARTESIAN_POINT ( 'NONE',  ( 6.500000000000000000, 7.960204194457795477E-16, 5.000000000000000000 ) ) ;
#173 = DIRECTION ( 'NONE',  ( 0.000000000000000000, 0.000000000000000000, 1.000000000000000000 ) ) ;
#174 = PRODUCT_DEFINITION_FORMATION_WITH_SPECIFIED_SOURCE ( 'ANY', '', #96, .NOT_KNOWN. ) ;
#175 = CC_DESIGN_PERSON_AND_ORGANIZATION_ASSIGNMENT ( #163, #34, ( #174 ) ) ;
#176 = LOCAL_TIME ( 8, 57, 34.00000000000000000, #15 ) ;
#177 = FACE_OUTER_BOUND ( 'NONE', #230, .T. ) ;
#178 = LINE ( 'NONE', #248, #187 ) ;
#179 = AXIS2_PLACEMENT_3D ( 'NONE', #241, #151, #112 ) ;
#180 = DIRECTION ( 'NONE',  ( 1.000000000000000000, 0.000000000000000000, 0.000000000000000000 ) ) ;
#181 = VERTEX_POINT ( 'NONE', #209 ) ;
#182 = CARTESIAN_POINT ( 'NONE',  ( 20.00000000000000000, 2.449293598294706513E-15, 0.000000000000000000 ) ) ;
#183 = CIRCLE ( 'NONE', #225, 20.00000000000000000 ) ;
#184 = FACE_OUTER_BOUND ( 'NONE', #235, .T. ) ;
#185 = DIRECTION ( 'NONE',  ( 1.000000000000000000, 0.000000000000000000, 0.000000000000000000 ) ) ;
#186 = DIRECTION ( 'NONE',  ( 0.000000000000000000, 0.000000000000000000, 1.000000000000000000 ) ) ;
#187 = VECTOR ( 'NONE', #80, 1000.000000000000000 ) ;
#188 = DIRECTION ( 'NONE',  ( 0.000000000000000000, 0.000000000000000000, 1.000000000000000000 ) ) ;
#189 = PERSON_AND_ORGANIZATION ( #152, #147 ) ;
#190 = PERSON_AND_ORGANIZATION_ROLE ( 'design_owner' ) ;
#191 = AXIS2_PLACEMENT_3D ( 'NONE', #24, #208, #108 ) ;
#192 = DATE_TIME_ROLE ( 'classification_date' ) ;
#193 = APPROVAL ( #118, 'UNSPECIFIED' ) ;
#194 = CALENDAR_DATE ( 2021, 25, 10 ) ;
#195 = LOCAL_TIME ( 8, 57, 34.00000000000000000, #246 ) ;
#196 = ORIENTED_EDGE ( 'NONE', *, *, #145, .F. ) ;
#197 = VERTEX_POINT ( 'NONE', #238 ) ;
#198 = CC_DESIGN_APPROVAL ( #193, ( #25 ) ) ;
#199 = PRODUCT_RELATED_PRODUCT_CATEGORY ( 'detail', '', ( #96 ) ) ;
#200 = ORIENTED_EDGE ( 'NONE', *, *, #237, .T. ) ;
#201 = ORIENTED_EDGE ( 'NONE', *, *, #101, .T. ) ;
#202 = DIRECTION ( 'NONE',  ( 0.000000000000000000, 0.000000000000000000, -1.000000000000000000 ) ) ;
#203 = CC_DESIGN_SECURITY_CLASSIFICATION ( #222, ( #174 ) ) ;
#204 = DIRECTION ( 'NONE',  ( 0.000000000000000000, 0.000000000000000000, 1.000000000000000000 ) ) ;
#205 = EDGE_CURVE ( 'NONE', #40, #181, #81, .T. ) ;
#206 = DIRECTION ( 'NONE',  ( 0.000000000000000000, 0.000000000000000000, 1.000000000000000000 ) ) ;
#207 = DIRECTION ( 'NONE',  ( 1.000000000000000000, 0.000000000000000000, 0.000000000000000000 ) ) ;
#208 = DIRECTION ( 'NONE',  ( 0.000000000000000000, 0.000000000000000000, 1.000000000000000000 ) ) ;
#209 = CARTESIAN_POINT ( 'NONE',  ( -20.00000000000000000, 0.000000000000000000, 0.000000000000000000 ) ) ;
#210 = DATE_AND_TIME ( #55, #89 ) ;
#211 = COORDINATED_UNIVERSAL_TIME_OFFSET ( 9, 0, .AHEAD. ) ;
#212 = DESIGN_CONTEXT ( 'detailed design', #236, 'design' ) ;
#213 = ORIENTED_EDGE ( 'NONE', *, *, #149, .T. ) ;
#214 = APPROVAL_PERSON_ORGANIZATION ( #50, #240, #121 ) ;
#215 = CARTESIAN_POINT ( 'NONE',  ( 0.000000000000000000, 0.000000000000000000, 0.000000000000000000 ) ) ;
#216 = EDGE_CURVE ( 'NONE', #38, #140, #115, .T. ) ;
#217 = ORIENTED_EDGE ( 'NONE', *, *, #59, .F. ) ;
#218 = CIRCLE ( 'NONE', #161, 6.500000000000000000 ) ;
#219 = LINE ( 'NONE', #42, #165 ) ;
#220 = VERTEX_POINT ( 'NONE', #224 ) ;
#221 = CARTESIAN_POINT ( 'NONE',  ( 0.000000000000000000, 0.000000000000000000, 5.000000000000000000 ) ) ;
#222 = SECURITY_CLASSIFICATION ( '', '', #74 ) ;
#223 = DIRECTION ( 'NONE',  ( 1.000000000000000000, 0.000000000000000000, 0.000000000000000000 ) ) ;
#224 = CARTESIAN_POINT ( 'NONE',  ( -20.00000000000000000, 0.000000000000000000, 5.000000000000000000 ) ) ;
#225 = AXIS2_PLACEMENT_3D ( 'NONE', #117, #188, #4 ) ;
#226 = PERSON_AND_ORGANIZATION_ROLE ( 'creator' ) ;
#227 = PERSON_AND_ORGANIZATION ( #152, #147 ) ;
#228 = CIRCLE ( 'NONE', #11, 6.500000000000000000 ) ;
#229 = APPROVAL_STATUS ( 'not_yet_approved' ) ;
#230 = EDGE_LOOP ( 'NONE', ( #1, #213, #16, #35 ) ) ;
#231 = CARTESIAN_POINT ( 'NONE',  ( 0.000000000000000000, 0.000000000000000000, 5.000000000000000000 ) ) ;
#232 = FACE_OUTER_BOUND ( 'NONE', #123, .T. ) ;
#233 = DIRECTION ( 'NONE',  ( 1.000000000000000000, 0.000000000000000000, 0.000000000000000000 ) ) ;
#234 = AXIS2_PLACEMENT_3D ( 'NONE', #221, #44, #67 ) ;
#235 = EDGE_LOOP ( 'NONE', ( #56, #201, #57, #217 ) ) ;
#236 = APPLICATION_CONTEXT ( 'configuration controlled 3d designs of mechanical parts and assemblies' ) ;
#237 = EDGE_CURVE ( 'NONE', #181, #40, #54, .T. ) ;
#238 = CARTESIAN_POINT ( 'NONE',  ( 6.500000000000000000, 7.960204194457795477E-16, 0.000000000000000000 ) ) ;
#239 = CARTESIAN_POINT ( 'NONE',  ( 0.000000000000000000, 0.000000000000000000, 5.000000000000000000 ) ) ;
#240 = APPROVAL ( #98, 'UNSPECIFIED' ) ;
#241 = CARTESIAN_POINT ( 'NONE',  ( 0.000000000000000000, 0.000000000000000000, 5.000000000000000000 ) ) ;
#242 = DIRECTION ( 'NONE',  ( 1.000000000000000000, 0.000000000000000000, 0.000000000000000000 ) ) ;
#243 = PRODUCT_DEFINITION_SHAPE ( 'NONE', 'NONE',  #25 ) ;
#244 = MECHANICAL_CONTEXT ( 'NONE', #134, 'mechanical' ) ;
#245 = ADVANCED_FACE ( 'NONE', ( #153 ), #87, .T. ) ;
#246 = COORDINATED_UNIVERSAL_TIME_OFFSET ( 9, 0, .AHEAD. ) ;
#247 = CYLINDRICAL_SURFACE ( 'NONE', #41, 6.500000000000000000 ) ;
#248 = CARTESIAN_POINT ( 'NONE',  ( -20.00000000000000000, 0.000000000000000000, 5.000000000000000000 ) ) ;
#249 = AXIS2_PLACEMENT_3D ( 'NONE', #156, #206, #223 ) ;
ENDSEC;
END-ISO-10303-21;
