ISO-10303-21;
HEADER;
FILE_DESCRIPTION (( 'STEP AP203' ),
    '1' );
FILE_NAME ('bj300-16125.STEP',
    '2021-10-24T23:51:46',
    ( '' ),
    ( '' ),
    'SwSTEP 2.0',
    'SolidWorks 2020',
    '' );
FILE_SCHEMA (( 'CONFIG_CONTROL_DESIGN' ));
ENDSEC;

DATA;
#1 = ORIENTED_EDGE ( 'NONE', *, *, #139, .F. ) ;
#2 = CARTESIAN_POINT ( 'NONE',  ( 0.000000000000000000, 0.000000000000000000, 35.00000000000000000 ) ) ;
#3 = ORIENTED_EDGE ( 'NONE', *, *, #192, .T. ) ;
#4 =( NAMED_UNIT ( * ) PLANE_ANGLE_UNIT ( ) SI_UNIT ( $, .RADIAN. ) );
#5 = VECTOR ( 'NONE', #42, 1000.000000000000000 ) ;
#6 = EDGE_LOOP ( 'NONE', ( #17, #176, #83, #109 ) ) ;
#7 = CC_DESIGN_APPROVAL ( #143, ( #56 ) ) ;
#8 = CC_DESIGN_PERSON_AND_ORGANIZATION_ASSIGNMENT ( #36, #34, ( #294 ) ) ;
#9 = APPLICATION_PROTOCOL_DEFINITION ( 'international standard', 'config_control_design', 1994, #158 ) ;
#10 = APPROVAL_ROLE ( '' ) ;
#11 = VECTOR ( 'NONE', #198, 1000.000000000000000 ) ;
#12 = DIRECTION ( 'NONE',  ( 0.000000000000000000, 0.000000000000000000, 1.000000000000000000 ) ) ;
#13 = DIRECTION ( 'NONE',  ( 1.000000000000000000, 0.000000000000000000, 0.000000000000000000 ) ) ;
#14 = EDGE_LOOP ( 'NONE', ( #24, #182 ) ) ;
#15 = ADVANCED_FACE ( 'NONE', ( #236 ), #65, .F. ) ;
#16 = DIRECTION ( 'NONE',  ( 1.000000000000000000, 0.000000000000000000, 0.000000000000000000 ) ) ;
#17 = ORIENTED_EDGE ( 'NONE', *, *, #197, .F. ) ;
#18 = AXIS2_PLACEMENT_3D ( 'NONE', #302, #52, #101 ) ;
#19 = ORIENTED_EDGE ( 'NONE', *, *, #58, .T. ) ;
#20 = DIRECTION ( 'NONE',  ( 0.000000000000000000, 0.000000000000000000, 1.000000000000000000 ) ) ;
#21 = PLANE ( 'NONE',  #255 ) ;
#22 = ADVANCED_FACE ( 'NONE', ( #186, #206 ), #60, .F. ) ;
#23 = VERTEX_POINT ( 'NONE', #135 ) ;
#24 = ORIENTED_EDGE ( 'NONE', *, *, #84, .T. ) ;
#25 = LINE ( 'NONE', #254, #62 ) ;
#26 = DIRECTION ( 'NONE',  ( 0.000000000000000000, 0.000000000000000000, 1.000000000000000000 ) ) ;
#27 = DIRECTION ( 'NONE',  ( 1.000000000000000000, 0.000000000000000000, 0.000000000000000000 ) ) ;
#28 = EDGE_LOOP ( 'NONE', ( #124, #259, #50, #127 ) ) ;
#29 = AXIS2_PLACEMENT_3D ( 'NONE', #256, #130, #54 ) ;
#30 = DIRECTION ( 'NONE',  ( 0.000000000000000000, 0.000000000000000000, 1.000000000000000000 ) ) ;
#31 = ADVANCED_FACE ( 'NONE', ( #320 ), #91, .T. ) ;
#32 = EDGE_LOOP ( 'NONE', ( #257, #160 ) ) ;
#33 = ADVANCED_BREP_SHAPE_REPRESENTATION ( 'bj300-16125', ( #161, #117 ), #318 ) ;
#34 = PERSON_AND_ORGANIZATION_ROLE ( 'creator' ) ;
#35 = CC_DESIGN_PERSON_AND_ORGANIZATION_ASSIGNMENT ( #162, #315, ( #61 ) ) ;
#36 = PERSON_AND_ORGANIZATION ( #218, #180 ) ;
#37 = DIRECTION ( 'NONE',  ( 1.000000000000000000, 0.000000000000000000, 0.000000000000000000 ) ) ;
#38 = AXIS2_PLACEMENT_3D ( 'NONE', #247, #99, #13 ) ;
#39 = COORDINATED_UNIVERSAL_TIME_OFFSET ( 9, 0, .AHEAD. ) ;
#40 = ADVANCED_FACE ( 'NONE', ( #113 ), #239, .F. ) ;
#41 = DATE_AND_TIME ( #269, #213 ) ;
#42 = DIRECTION ( 'NONE',  ( 0.000000000000000000, 0.000000000000000000, 1.000000000000000000 ) ) ;
#43 = LOCAL_TIME ( 8, 51, 46.00000000000000000, #144 ) ;
#44 = DIRECTION ( 'NONE',  ( 1.000000000000000000, 0.000000000000000000, 0.000000000000000000 ) ) ;
#45 = FACE_OUTER_BOUND ( 'NONE', #326, .T. ) ;
#46 = VERTEX_POINT ( 'NONE', #70 ) ;
#47 = DIRECTION ( 'NONE',  ( -1.000000000000000000, 0.000000000000000000, 0.000000000000000000 ) ) ;
#48 = AXIS2_PLACEMENT_3D ( 'NONE', #75, #279, #181 ) ;
#49 = CARTESIAN_POINT ( 'NONE',  ( 0.000000000000000000, 0.000000000000000000, 35.00000000000000000 ) ) ;
#50 = ORIENTED_EDGE ( 'NONE', *, *, #304, .T. ) ;
#51 = EDGE_CURVE ( 'NONE', #80, #225, #265, .T. ) ;
#52 = DIRECTION ( 'NONE',  ( 0.000000000000000000, 0.000000000000000000, -1.000000000000000000 ) ) ;
#53 = ORIENTED_EDGE ( 'NONE', *, *, #220, .T. ) ;
#54 = DIRECTION ( 'NONE',  ( 1.000000000000000000, 0.000000000000000000, 0.000000000000000000 ) ) ;
#55 = VERTEX_POINT ( 'NONE', #169 ) ;
#56 = SECURITY_CLASSIFICATION ( '', '', #319 ) ;
#57 = AXIS2_PLACEMENT_3D ( 'NONE', #285, #288, #132 ) ;
#58 = EDGE_CURVE ( 'NONE', #232, #80, #185, .T. ) ;
#59 = DIRECTION ( 'NONE',  ( 0.000000000000000000, 0.000000000000000000, 1.000000000000000000 ) ) ;
#60 = PLANE ( 'NONE',  #233 ) ;
#61 = PRODUCT ( 'bj300-16125', 'bj300-16125', '', ( #231 ) ) ;
#62 = VECTOR ( 'NONE', #26, 1000.000000000000000 ) ;
#63 = ORIENTED_EDGE ( 'NONE', *, *, #147, .F. ) ;
#64 = CIRCLE ( 'NONE', #310, 13.00000000000000000 ) ;
#65 = CYLINDRICAL_SURFACE ( 'NONE', #295, 9.000000000000000000 ) ;
#66 = PERSON_AND_ORGANIZATION ( #218, #180 ) ;
#67 = DIRECTION ( 'NONE',  ( 1.000000000000000000, 0.000000000000000000, 0.000000000000000000 ) ) ;
#68 = AXIS2_PLACEMENT_3D ( 'NONE', #71, #20, #44 ) ;
#69 = APPROVAL_ROLE ( '' ) ;
#70 = CARTESIAN_POINT ( 'NONE',  ( -9.000000000000000000, 1.102182119232617714E-15, 0.000000000000000000 ) ) ;
#71 = CARTESIAN_POINT ( 'NONE',  ( 0.000000000000000000, 0.000000000000000000, 125.0000000000000000 ) ) ;
#72 = ADVANCED_FACE ( 'NONE', ( #111 ), #268, .F. ) ;
#73 = DIRECTION ( 'NONE',  ( 1.000000000000000000, 0.000000000000000000, 0.000000000000000000 ) ) ;
#74 = CC_DESIGN_PERSON_AND_ORGANIZATION_ASSIGNMENT ( #240, #270, ( #329 ) ) ;
#75 = CARTESIAN_POINT ( 'NONE',  ( 0.000000000000000000, 0.000000000000000000, 0.000000000000000000 ) ) ;
#76 = EDGE_LOOP ( 'NONE', ( #63, #177, #3, #278 ) ) ;
#77 = CARTESIAN_POINT ( 'NONE',  ( 13.00000000000000000, 0.000000000000000000, 40.00000000000000000 ) ) ;
#78 = AXIS2_PLACEMENT_3D ( 'NONE', #145, #314, #37 ) ;
#79 = FACE_OUTER_BOUND ( 'NONE', #14, .T. ) ;
#80 = VERTEX_POINT ( 'NONE', #148 ) ;
#81 = ORIENTED_EDGE ( 'NONE', *, *, #304, .F. ) ;
#82 = CARTESIAN_POINT ( 'NONE',  ( 9.000000000000000000, 0.000000000000000000, 35.00000000000000000 ) ) ;
#83 = ORIENTED_EDGE ( 'NONE', *, *, #230, .T. ) ;
#84 = EDGE_CURVE ( 'NONE', #102, #225, #266, .T. ) ;
#85 = DATE_TIME_ROLE ( 'classification_date' ) ;
#86 = AXIS2_PLACEMENT_3D ( 'NONE', #175, #153, #95 ) ;
#87 = DIRECTION ( 'NONE',  ( 1.000000000000000000, 0.000000000000000000, 0.000000000000000000 ) ) ;
#88 = PERSON_AND_ORGANIZATION_ROLE ( 'creator' ) ;
#89 = CIRCLE ( 'NONE', #86, 9.000000000000000000 ) ;
#90 = DIRECTION ( 'NONE',  ( 0.000000000000000000, 0.000000000000000000, 1.000000000000000000 ) ) ;
#91 = CYLINDRICAL_SURFACE ( 'NONE', #174, 25.00000000000000000 ) ;
#92 = FACE_OUTER_BOUND ( 'NONE', #6, .T. ) ;
#93 = EDGE_LOOP ( 'NONE', ( #1, #104 ) ) ;
#94 = AXIS2_PLACEMENT_3D ( 'NONE', #300, #121, #16 ) ;
#95 = DIRECTION ( 'NONE',  ( 1.000000000000000000, 0.000000000000000000, 0.000000000000000000 ) ) ;
#96 = ORIENTED_EDGE ( 'NONE', *, *, #220, .F. ) ;
#97 = CARTESIAN_POINT ( 'NONE',  ( -13.00000000000000000, 1.592040838891559095E-15, 40.00000000000000000 ) ) ;
#98 = ORIENTED_EDGE ( 'NONE', *, *, #207, .T. ) ;
#99 = DIRECTION ( 'NONE',  ( 0.000000000000000000, 0.000000000000000000, 1.000000000000000000 ) ) ;
#100 = VECTOR ( 'NONE', #277, 1000.000000000000000 ) ;
#101 = DIRECTION ( 'NONE',  ( -1.000000000000000000, 0.000000000000000000, 0.000000000000000000 ) ) ;
#102 = VERTEX_POINT ( 'NONE', #219 ) ;
#103 =( NAMED_UNIT ( * ) SI_UNIT ( $, .STERADIAN. ) SOLID_ANGLE_UNIT ( ) );
#104 = ORIENTED_EDGE ( 'NONE', *, *, #230, .F. ) ;
#105 = APPROVAL ( #296, 'UNSPECIFIED' ) ;
#106 = CARTESIAN_POINT ( 'NONE',  ( 0.000000000000000000, 0.000000000000000000, 40.00000000000000000 ) ) ;
#107 = VECTOR ( 'NONE', #178, 1000.000000000000000 ) ;
#108 = CARTESIAN_POINT ( 'NONE',  ( 0.000000000000000000, 0.000000000000000000, 0.000000000000000000 ) ) ;
#109 = ORIENTED_EDGE ( 'NONE', *, *, #192, .F. ) ;
#110 = LOCAL_TIME ( 8, 51, 46.00000000000000000, #194 ) ;
#111 = FACE_OUTER_BOUND ( 'NONE', #76, .T. ) ;
#112 = DATE_AND_TIME ( #244, #110 ) ;
#113 = FACE_OUTER_BOUND ( 'NONE', #28, .T. ) ;
#114 = APPROVAL_STATUS ( 'not_yet_approved' ) ;
#115 = CARTESIAN_POINT ( 'NONE',  ( 0.000000000000000000, 0.000000000000000000, 40.00000000000000000 ) ) ;
#116 = CALENDAR_DATE ( 2021, 25, 10 ) ;
#117 = AXIS2_PLACEMENT_3D ( 'NONE', #108, #30, #235 ) ;
#118 = ADVANCED_FACE ( 'NONE', ( #241, #321 ), #21, .F. ) ;
#119 = DIRECTION ( 'NONE',  ( 0.000000000000000000, 0.000000000000000000, 1.000000000000000000 ) ) ;
#120 = ORIENTED_EDGE ( 'NONE', *, *, #51, .F. ) ;
#121 = DIRECTION ( 'NONE',  ( 0.000000000000000000, 0.000000000000000000, 1.000000000000000000 ) ) ;
#122 = VERTEX_POINT ( 'NONE', #251 ) ;
#123 = CYLINDRICAL_SURFACE ( 'NONE', #203, 25.00000000000000000 ) ;
#124 = ORIENTED_EDGE ( 'NONE', *, *, #207, .F. ) ;
#125 = ADVANCED_FACE ( 'NONE', ( #45 ), #123, .T. ) ;
#126 = CARTESIAN_POINT ( 'NONE',  ( 0.000000000000000000, 0.000000000000000000, 125.0000000000000000 ) ) ;
#127 = ORIENTED_EDGE ( 'NONE', *, *, #262, .F. ) ;
#128 = CC_DESIGN_SECURITY_CLASSIFICATION ( #56, ( #329 ) ) ;
#129 = AXIS2_PLACEMENT_3D ( 'NONE', #2, #59, #164 ) ;
#130 = DIRECTION ( 'NONE',  ( 0.000000000000000000, 0.000000000000000000, 1.000000000000000000 ) ) ;
#131 = CC_DESIGN_PERSON_AND_ORGANIZATION_ASSIGNMENT ( #193, #146, ( #56 ) ) ;
#132 = DIRECTION ( 'NONE',  ( 1.000000000000000000, 0.000000000000000000, 0.000000000000000000 ) ) ;
#133 = DIRECTION ( 'NONE',  ( 1.000000000000000000, 0.000000000000000000, 0.000000000000000000 ) ) ;
#134 = PRODUCT_DEFINITION_SHAPE ( 'NONE', 'NONE',  #294 ) ;
#135 = CARTESIAN_POINT ( 'NONE',  ( -13.00000000000000000, 1.592040838891559095E-15, 125.0000000000000000 ) ) ;
#136 = ORIENTED_EDGE ( 'NONE', *, *, #204, .F. ) ;
#137 = VERTEX_POINT ( 'NONE', #328 ) ;
#138 = APPLICATION_CONTEXT ( 'configuration controlled 3d designs of mechanical parts and assemblies' ) ;
#139 = EDGE_CURVE ( 'NONE', #137, #23, #297, .T. ) ;
#140 = DATE_AND_TIME ( #165, #149 ) ;
#141 = CLOSED_SHELL ( 'NONE', ( #250, #31, #40, #118, #15, #22, #125, #242, #72 ) ) ;
#142 = DIRECTION ( 'NONE',  ( 0.000000000000000000, 0.000000000000000000, 1.000000000000000000 ) ) ;
#143 = APPROVAL ( #238, 'UNSPECIFIED' ) ;
#144 = COORDINATED_UNIVERSAL_TIME_OFFSET ( 9, 0, .AHEAD. ) ;
#145 = CARTESIAN_POINT ( 'NONE',  ( 0.000000000000000000, 0.000000000000000000, 40.00000000000000000 ) ) ;
#146 = PERSON_AND_ORGANIZATION_ROLE ( 'classification_officer' ) ;
#147 = EDGE_CURVE ( 'NONE', #122, #23, #248, .T. ) ;
#148 = CARTESIAN_POINT ( 'NONE',  ( -25.00000000000000000, 3.061616997868383043E-15, 0.000000000000000000 ) ) ;
#149 = LOCAL_TIME ( 8, 51, 46.00000000000000000, #39 ) ;
#150 = CARTESIAN_POINT ( 'NONE',  ( -25.00000000000000000, 3.061616997868383043E-15, 125.0000000000000000 ) ) ;
#151 = CYLINDRICAL_SURFACE ( 'NONE', #29, 13.00000000000000000 ) ;
#152 = ORIENTED_EDGE ( 'NONE', *, *, #196, .F. ) ;
#153 = DIRECTION ( 'NONE',  ( 0.000000000000000000, 0.000000000000000000, 1.000000000000000000 ) ) ;
#154 = AXIS2_PLACEMENT_3D ( 'NONE', #126, #322, #325 ) ;
#155 = CARTESIAN_POINT ( 'NONE',  ( 25.00000000000000000, 0.000000000000000000, 40.00000000000000000 ) ) ;
#156 = CARTESIAN_POINT ( 'NONE',  ( -9.000000000000000000, 1.102182119232617714E-15, 40.00000000000000000 ) ) ;
#157 = ORIENTED_EDGE ( 'NONE', *, *, #262, .T. ) ;
#158 = APPLICATION_CONTEXT ( 'configuration controlled 3d designs of mechanical parts and assemblies' ) ;
#159 = APPROVAL ( #114, 'UNSPECIFIED' ) ;
#160 = ORIENTED_EDGE ( 'NONE', *, *, #197, .T. ) ;
#161 = MANIFOLD_SOLID_BREP ( 'Imported1', #141 ) ;
#162 = PERSON_AND_ORGANIZATION ( #218, #180 ) ;
#163 = DIRECTION ( 'NONE',  ( 0.000000000000000000, 0.000000000000000000, 1.000000000000000000 ) ) ;
#164 = DIRECTION ( 'NONE',  ( 1.000000000000000000, 0.000000000000000000, 0.000000000000000000 ) ) ;
#165 = CALENDAR_DATE ( 2021, 25, 10 ) ;
#166 = DIRECTION ( 'NONE',  ( 0.000000000000000000, 0.000000000000000000, 1.000000000000000000 ) ) ;
#167 = PERSON_AND_ORGANIZATION ( #218, #180 ) ;
#168 = CIRCLE ( 'NONE', #68, 13.00000000000000000 ) ;
#169 = CARTESIAN_POINT ( 'NONE',  ( 9.000000000000000000, 0.000000000000000000, 0.000000000000000000 ) ) ;
#170 = COORDINATED_UNIVERSAL_TIME_OFFSET ( 9, 0, .AHEAD. ) ;
#171 = DATE_TIME_ROLE ( 'creation_date' ) ;
#172 = CARTESIAN_POINT ( 'NONE',  ( -25.00000000000000000, 3.061616997868383043E-15, 40.00000000000000000 ) ) ;
#173 = CARTESIAN_POINT ( 'NONE',  ( 0.000000000000000000, 0.000000000000000000, 40.00000000000000000 ) ) ;
#174 = AXIS2_PLACEMENT_3D ( 'NONE', #316, #90, #246 ) ;
#175 = CARTESIAN_POINT ( 'NONE',  ( 0.000000000000000000, 0.000000000000000000, 0.000000000000000000 ) ) ;
#176 = ORIENTED_EDGE ( 'NONE', *, *, #147, .T. ) ;
#177 = ORIENTED_EDGE ( 'NONE', *, *, #292, .F. ) ;
#178 = DIRECTION ( 'NONE',  ( 0.000000000000000000, 0.000000000000000000, 1.000000000000000000 ) ) ;
#179 = EDGE_LOOP ( 'NONE', ( #19, #211, #301, #96 ) ) ;
#180 = ORGANIZATION ( 'UNSPECIFIED', 'UNSPECIFIED', '' ) ;
#181 = DIRECTION ( 'NONE',  ( 1.000000000000000000, 0.000000000000000000, 0.000000000000000000 ) ) ;
#182 = ORIENTED_EDGE ( 'NONE', *, *, #273, .T. ) ;
#183 = EDGE_LOOP ( 'NONE', ( #252, #152 ) ) ;
#184 = UNCERTAINTY_MEASURE_WITH_UNIT (LENGTH_MEASURE( 1.000000000000000082E-05 ), #188, 'distance_accuracy_value', 'NONE');
#185 = CIRCLE ( 'NONE', #245, 25.00000000000000000 ) ;
#186 = FACE_OUTER_BOUND ( 'NONE', #183, .T. ) ;
#187 = VERTEX_POINT ( 'NONE', #200 ) ;
#188 =( LENGTH_UNIT ( ) NAMED_UNIT ( * ) SI_UNIT ( .MILLI., .METRE. ) );
#189 = EDGE_CURVE ( 'NONE', #253, #299, #195, .T. ) ;
#190 = APPROVAL_PERSON_ORGANIZATION ( #167, #159, #216 ) ;
#191 = DATE_AND_TIME ( #116, #208 ) ;
#192 = EDGE_CURVE ( 'NONE', #187, #137, #274, .T. ) ;
#193 = PERSON_AND_ORGANIZATION ( #218, #180 ) ;
#194 = COORDINATED_UNIVERSAL_TIME_OFFSET ( 9, 0, .AHEAD. ) ;
#195 = CIRCLE ( 'NONE', #94, 9.000000000000000000 ) ;
#196 = EDGE_CURVE ( 'NONE', #80, #232, #272, .T. ) ;
#197 = EDGE_CURVE ( 'NONE', #122, #187, #64, .T. ) ;
#198 = DIRECTION ( 'NONE',  ( 0.000000000000000000, 0.000000000000000000, 1.000000000000000000 ) ) ;
#199 = LINE ( 'NONE', #155, #249 ) ;
#200 = CARTESIAN_POINT ( 'NONE',  ( 13.00000000000000000, 0.000000000000000000, 35.00000000000000000 ) ) ;
#201 = CIRCLE ( 'NONE', #38, 9.000000000000000000 ) ;
#202 = PLANE ( 'NONE',  #18 ) ;
#203 = AXIS2_PLACEMENT_3D ( 'NONE', #173, #222, #73 ) ;
#204 = EDGE_CURVE ( 'NONE', #46, #299, #228, .T. ) ;
#205 = DIRECTION ( 'NONE',  ( 0.000000000000000000, 0.000000000000000000, -1.000000000000000000 ) ) ;
#206 = FACE_BOUND ( 'NONE', #224, .T. ) ;
#207 = EDGE_CURVE ( 'NONE', #46, #55, #89, .T. ) ;
#208 = LOCAL_TIME ( 8, 51, 46.00000000000000000, #214 ) ;
#209 = AXIS2_PLACEMENT_3D ( 'NONE', #217, #142, #87 ) ;
#210 = CC_DESIGN_PERSON_AND_ORGANIZATION_ASSIGNMENT ( #66, #88, ( #329 ) ) ;
#211 = ORIENTED_EDGE ( 'NONE', *, *, #51, .T. ) ;
#212 = CC_DESIGN_DATE_AND_TIME_ASSIGNMENT ( #140, #171, ( #294 ) ) ;
#213 = LOCAL_TIME ( 8, 51, 46.00000000000000000, #170 ) ;
#214 = COORDINATED_UNIVERSAL_TIME_OFFSET ( 9, 0, .AHEAD. ) ;
#215 = DIRECTION ( 'NONE',  ( 1.000000000000000000, 0.000000000000000000, 0.000000000000000000 ) ) ;
#216 = APPROVAL_ROLE ( '' ) ;
#217 = CARTESIAN_POINT ( 'NONE',  ( 0.000000000000000000, 0.000000000000000000, 125.0000000000000000 ) ) ;
#218 = PERSON ( 'UNSPECIFIED', 'UNSPECIFIED', 'UNSPECIFIED', ('UNSPECIFIED'), ('UNSPECIFIED'), ('UNSPECIFIED') ) ;
#219 = CARTESIAN_POINT ( 'NONE',  ( 25.00000000000000000, 0.000000000000000000, 125.0000000000000000 ) ) ;
#220 = EDGE_CURVE ( 'NONE', #232, #102, #199, .T. ) ;
#221 = APPROVAL_PERSON_ORGANIZATION ( #293, #143, #10 ) ;
#222 = DIRECTION ( 'NONE',  ( 0.000000000000000000, 0.000000000000000000, 1.000000000000000000 ) ) ;
#223 = CIRCLE ( 'NONE', #313, 9.000000000000000000 ) ;
#224 = EDGE_LOOP ( 'NONE', ( #284, #98 ) ) ;
#225 = VERTEX_POINT ( 'NONE', #150 ) ;
#226 = CARTESIAN_POINT ( 'NONE',  ( 25.00000000000000000, 0.000000000000000000, 0.000000000000000000 ) ) ;
#227 = ORIENTED_EDGE ( 'NONE', *, *, #237, .F. ) ;
#228 = LINE ( 'NONE', #156, #11 ) ;
#229 = DIRECTION ( 'NONE',  ( 0.000000000000000000, 0.000000000000000000, 1.000000000000000000 ) ) ;
#230 = EDGE_CURVE ( 'NONE', #23, #137, #168, .T. ) ;
#231 = MECHANICAL_CONTEXT ( 'NONE', #138, 'mechanical' ) ;
#232 = VERTEX_POINT ( 'NONE', #226 ) ;
#233 = AXIS2_PLACEMENT_3D ( 'NONE', #307, #163, #27 ) ;
#234 = CARTESIAN_POINT ( 'NONE',  ( -9.000000000000000000, 1.102182119232617714E-15, 35.00000000000000000 ) ) ;
#235 = DIRECTION ( 'NONE',  ( 1.000000000000000000, 0.000000000000000000, 0.000000000000000000 ) ) ;
#236 = FACE_OUTER_BOUND ( 'NONE', #327, .T. ) ;
#237 = EDGE_CURVE ( 'NONE', #55, #46, #201, .T. ) ;
#238 = APPROVAL_STATUS ( 'not_yet_approved' ) ;
#239 = CYLINDRICAL_SURFACE ( 'NONE', #260, 9.000000000000000000 ) ;
#240 = PERSON_AND_ORGANIZATION ( #218, #180 ) ;
#241 = FACE_BOUND ( 'NONE', #312, .T. ) ;
#242 = ADVANCED_FACE ( 'NONE', ( #282, #79 ), #202, .F. ) ;
#243 = CARTESIAN_POINT ( 'NONE',  ( 0.000000000000000000, 0.000000000000000000, 0.000000000000000000 ) ) ;
#244 = CALENDAR_DATE ( 2021, 25, 10 ) ;
#245 = AXIS2_PLACEMENT_3D ( 'NONE', #243, #12, #215 ) ;
#246 = DIRECTION ( 'NONE',  ( 1.000000000000000000, 0.000000000000000000, 0.000000000000000000 ) ) ;
#247 = CARTESIAN_POINT ( 'NONE',  ( 0.000000000000000000, 0.000000000000000000, 0.000000000000000000 ) ) ;
#248 = LINE ( 'NONE', #97, #100 ) ;
#249 = VECTOR ( 'NONE', #119, 1000.000000000000000 ) ;
#250 = ADVANCED_FACE ( 'NONE', ( #92 ), #151, .F. ) ;
#251 = CARTESIAN_POINT ( 'NONE',  ( -13.00000000000000000, 1.592040838891559095E-15, 35.00000000000000000 ) ) ;
#252 = ORIENTED_EDGE ( 'NONE', *, *, #58, .F. ) ;
#253 = VERTEX_POINT ( 'NONE', #82 ) ;
#254 = CARTESIAN_POINT ( 'NONE',  ( 9.000000000000000000, 0.000000000000000000, 40.00000000000000000 ) ) ;
#255 = AXIS2_PLACEMENT_3D ( 'NONE', #298, #205, #47 ) ;
#256 = CARTESIAN_POINT ( 'NONE',  ( 0.000000000000000000, 0.000000000000000000, 40.00000000000000000 ) ) ;
#257 = ORIENTED_EDGE ( 'NONE', *, *, #292, .T. ) ;
#258 = ORIENTED_EDGE ( 'NONE', *, *, #189, .F. ) ;
#259 = ORIENTED_EDGE ( 'NONE', *, *, #204, .T. ) ;
#260 = AXIS2_PLACEMENT_3D ( 'NONE', #115, #166, #67 ) ;
#261 = DIRECTION ( 'NONE',  ( 0.000000000000000000, 0.000000000000000000, 1.000000000000000000 ) ) ;
#262 = EDGE_CURVE ( 'NONE', #55, #253, #25, .T. ) ;
#263 = SHAPE_DEFINITION_REPRESENTATION ( #134, #33 ) ;
#264 = PERSON_AND_ORGANIZATION ( #218, #180 ) ;
#265 = LINE ( 'NONE', #172, #5 ) ;
#266 = CIRCLE ( 'NONE', #209, 25.00000000000000000 ) ;
#267 = DATE_AND_TIME ( #317, #43 ) ;
#268 = CYLINDRICAL_SURFACE ( 'NONE', #78, 13.00000000000000000 ) ;
#269 = CALENDAR_DATE ( 2021, 25, 10 ) ;
#270 = PERSON_AND_ORGANIZATION_ROLE ( 'design_supplier' ) ;
#271 = CC_DESIGN_APPROVAL ( #159, ( #329 ) ) ;
#272 = CIRCLE ( 'NONE', #48, 25.00000000000000000 ) ;
#273 = EDGE_CURVE ( 'NONE', #225, #102, #280, .T. ) ;
#274 = LINE ( 'NONE', #77, #107 ) ;
#275 = DIRECTION ( 'NONE',  ( 0.000000000000000000, 0.000000000000000000, 1.000000000000000000 ) ) ;
#276 = ORIENTED_EDGE ( 'NONE', *, *, #196, .T. ) ;
#277 = DIRECTION ( 'NONE',  ( 0.000000000000000000, 0.000000000000000000, 1.000000000000000000 ) ) ;
#278 = ORIENTED_EDGE ( 'NONE', *, *, #139, .T. ) ;
#279 = DIRECTION ( 'NONE',  ( 0.000000000000000000, 0.000000000000000000, 1.000000000000000000 ) ) ;
#280 = CIRCLE ( 'NONE', #57, 25.00000000000000000 ) ;
#281 = DESIGN_CONTEXT ( 'detailed design', #158, 'design' ) ;
#282 = FACE_BOUND ( 'NONE', #93, .T. ) ;
#283 = ORIENTED_EDGE ( 'NONE', *, *, #189, .T. ) ;
#284 = ORIENTED_EDGE ( 'NONE', *, *, #237, .T. ) ;
#285 = CARTESIAN_POINT ( 'NONE',  ( 0.000000000000000000, 0.000000000000000000, 125.0000000000000000 ) ) ;
#286 = PRODUCT_RELATED_PRODUCT_CATEGORY ( 'detail', '', ( #61 ) ) ;
#287 = CIRCLE ( 'NONE', #129, 13.00000000000000000 ) ;
#288 = DIRECTION ( 'NONE',  ( 0.000000000000000000, 0.000000000000000000, 1.000000000000000000 ) ) ;
#289 = CC_DESIGN_APPROVAL ( #105, ( #294 ) ) ;
#290 = APPROVAL_DATE_TIME ( #191, #143 ) ;
#291 = APPROVAL_DATE_TIME ( #41, #105 ) ;
#292 = EDGE_CURVE ( 'NONE', #187, #122, #287, .T. ) ;
#293 = PERSON_AND_ORGANIZATION ( #218, #180 ) ;
#294 = PRODUCT_DEFINITION ( 'UNKNOWN', '', #329, #281 ) ;
#295 = AXIS2_PLACEMENT_3D ( 'NONE', #106, #229, #309 ) ;
#296 = APPROVAL_STATUS ( 'not_yet_approved' ) ;
#297 = CIRCLE ( 'NONE', #154, 13.00000000000000000 ) ;
#298 = CARTESIAN_POINT ( 'NONE',  ( 13.00000000000000000, 0.000000000000000000, 35.00000000000000000 ) ) ;
#299 = VERTEX_POINT ( 'NONE', #234 ) ;
#300 = CARTESIAN_POINT ( 'NONE',  ( 0.000000000000000000, 0.000000000000000000, 35.00000000000000000 ) ) ;
#301 = ORIENTED_EDGE ( 'NONE', *, *, #84, .F. ) ;
#302 = CARTESIAN_POINT ( 'NONE',  ( 25.00000000000000000, 0.000000000000000000, 125.0000000000000000 ) ) ;
#303 = APPROVAL_PERSON_ORGANIZATION ( #264, #105, #69 ) ;
#304 = EDGE_CURVE ( 'NONE', #299, #253, #223, .T. ) ;
#305 = APPLICATION_PROTOCOL_DEFINITION ( 'international standard', 'config_control_design', 1994, #138 ) ;
#306 = CC_DESIGN_DATE_AND_TIME_ASSIGNMENT ( #112, #85, ( #56 ) ) ;
#307 = CARTESIAN_POINT ( 'NONE',  ( 9.000000000000000000, 0.000000000000000000, 0.000000000000000000 ) ) ;
#308 = CARTESIAN_POINT ( 'NONE',  ( 0.000000000000000000, 0.000000000000000000, 35.00000000000000000 ) ) ;
#309 = DIRECTION ( 'NONE',  ( 1.000000000000000000, 0.000000000000000000, 0.000000000000000000 ) ) ;
#310 = AXIS2_PLACEMENT_3D ( 'NONE', #49, #275, #324 ) ;
#311 = APPROVAL_DATE_TIME ( #267, #159 ) ;
#312 = EDGE_LOOP ( 'NONE', ( #258, #81 ) ) ;
#313 = AXIS2_PLACEMENT_3D ( 'NONE', #308, #261, #133 ) ;
#314 = DIRECTION ( 'NONE',  ( 0.000000000000000000, 0.000000000000000000, 1.000000000000000000 ) ) ;
#315 = PERSON_AND_ORGANIZATION_ROLE ( 'design_owner' ) ;
#316 = CARTESIAN_POINT ( 'NONE',  ( 0.000000000000000000, 0.000000000000000000, 40.00000000000000000 ) ) ;
#317 = CALENDAR_DATE ( 2021, 25, 10 ) ;
#318 =( GEOMETRIC_REPRESENTATION_CONTEXT ( 3 ) GLOBAL_UNCERTAINTY_ASSIGNED_CONTEXT ( ( #184 ) ) GLOBAL_UNIT_ASSIGNED_CONTEXT ( ( #188, #4, #103 ) ) REPRESENTATION_CONTEXT ( 'NONE', 'WORKASPACE' ) );
#319 = SECURITY_CLASSIFICATION_LEVEL ( 'unclassified' ) ;
#320 = FACE_OUTER_BOUND ( 'NONE', #179, .T. ) ;
#321 = FACE_OUTER_BOUND ( 'NONE', #32, .T. ) ;
#322 = DIRECTION ( 'NONE',  ( 0.000000000000000000, 0.000000000000000000, 1.000000000000000000 ) ) ;
#323 = ORIENTED_EDGE ( 'NONE', *, *, #273, .F. ) ;
#324 = DIRECTION ( 'NONE',  ( 1.000000000000000000, 0.000000000000000000, 0.000000000000000000 ) ) ;
#325 = DIRECTION ( 'NONE',  ( 1.000000000000000000, 0.000000000000000000, 0.000000000000000000 ) ) ;
#326 = EDGE_LOOP ( 'NONE', ( #120, #276, #53, #323 ) ) ;
#327 = EDGE_LOOP ( 'NONE', ( #136, #227, #157, #283 ) ) ;
#328 = CARTESIAN_POINT ( 'NONE',  ( 13.00000000000000000, 0.000000000000000000, 125.0000000000000000 ) ) ;
#329 = PRODUCT_DEFINITION_FORMATION_WITH_SPECIFIED_SOURCE ( 'ANY', '', #61, .NOT_KNOWN. ) ;
ENDSEC;
END-ISO-10303-21;
