ISO-10303-21;
HEADER;
FILE_DESCRIPTION (( 'STEP AP203' ),
    '1' );
FILE_NAME ('bj300-08020.STEP',
    '2021-10-24T23:50:49',
    ( '' ),
    ( '' ),
    'SwSTEP 2.0',
    'SolidWorks 2020',
    '' );
FILE_SCHEMA (( 'CONFIG_CONTROL_DESIGN' ));
ENDSEC;

DATA;
#1 = VERTEX_POINT ( 'NONE', #4 ) ;
#2 = EDGE_CURVE ( 'NONE', #177, #26, #37, .T. ) ;
#3 = DATE_AND_TIME ( #28, #165 ) ;
#4 = CARTESIAN_POINT ( 'NONE',  ( 7.000000000000000000, 0.000000000000000000, 7.000000000000000000 ) ) ;
#5 = APPROVAL_DATE_TIME ( #3, #273 ) ;
#6 = CARTESIAN_POINT ( 'NONE',  ( 12.50000000000000000, 0.000000000000000000, 0.000000000000000000 ) ) ;
#7 = EDGE_CURVE ( 'NONE', #26, #132, #306, .T. ) ;
#8 = PERSON_AND_ORGANIZATION ( #63, #292 ) ;
#9 = APPROVAL_DATE_TIME ( #146, #222 ) ;
#10 = AXIS2_PLACEMENT_3D ( 'NONE', #322, #53, #154 ) ;
#11 = CC_DESIGN_SECURITY_CLASSIFICATION ( #179, ( #225 ) ) ;
#12 = DIRECTION ( 'NONE',  ( 1.000000000000000000, 0.000000000000000000, 0.000000000000000000 ) ) ;
#13 = CARTESIAN_POINT ( 'NONE',  ( 0.000000000000000000, 0.000000000000000000, 7.000000000000000000 ) ) ;
#14 = CIRCLE ( 'NONE', #65, 12.50000000000000000 ) ;
#15 = AXIS2_PLACEMENT_3D ( 'NONE', #272, #116, #12 ) ;
#16 = ORIENTED_EDGE ( 'NONE', *, *, #7, .F. ) ;
#17 = CC_DESIGN_PERSON_AND_ORGANIZATION_ASSIGNMENT ( #8, #141, ( #225 ) ) ;
#18 = CYLINDRICAL_SURFACE ( 'NONE', #22, 12.50000000000000000 ) ;
#19 = ORIENTED_EDGE ( 'NONE', *, *, #261, .F. ) ;
#20 = ORIENTED_EDGE ( 'NONE', *, *, #264, .T. ) ;
#21 = PLANE ( 'NONE',  #59 ) ;
#22 = AXIS2_PLACEMENT_3D ( 'NONE', #75, #23, #300 ) ;
#23 = DIRECTION ( 'NONE',  ( 0.000000000000000000, 0.000000000000000000, 1.000000000000000000 ) ) ;
#24 = EDGE_LOOP ( 'NONE', ( #184, #48, #289, #20 ) ) ;
#25 = ADVANCED_FACE ( 'NONE', ( #87 ), #110, .F. ) ;
#26 = VERTEX_POINT ( 'NONE', #6 ) ;
#27 = UNCERTAINTY_MEASURE_WITH_UNIT (LENGTH_MEASURE( 1.000000000000000082E-05 ), #259, 'distance_accuracy_value', 'NONE');
#28 = CALENDAR_DATE ( 2021, 25, 10 ) ;
#29 = EDGE_CURVE ( 'NONE', #156, #228, #309, .T. ) ;
#30 = AXIS2_PLACEMENT_3D ( 'NONE', #249, #153, #122 ) ;
#31 = DATE_AND_TIME ( #158, #112 ) ;
#32 = CARTESIAN_POINT ( 'NONE',  ( 0.000000000000000000, 0.000000000000000000, 0.000000000000000000 ) ) ;
#33 = EDGE_CURVE ( 'NONE', #1, #98, #58, .T. ) ;
#34 = CARTESIAN_POINT ( 'NONE',  ( 7.000000000000000000, 0.000000000000000000, 40.00000000000000000 ) ) ;
#35 = MECHANICAL_CONTEXT ( 'NONE', #187, 'mechanical' ) ;
#36 = CARTESIAN_POINT ( 'NONE',  ( 0.000000000000000000, 0.000000000000000000, 0.000000000000000000 ) ) ;
#37 = CIRCLE ( 'NONE', #195, 12.50000000000000000 ) ;
#38 = PERSON_AND_ORGANIZATION ( #63, #292 ) ;
#39 = COORDINATED_UNIVERSAL_TIME_OFFSET ( 9, 0, .AHEAD. ) ;
#40 = CYLINDRICAL_SURFACE ( 'NONE', #239, 12.50000000000000000 ) ;
#41 = COORDINATED_UNIVERSAL_TIME_OFFSET ( 9, 0, .AHEAD. ) ;
#42 = AXIS2_PLACEMENT_3D ( 'NONE', #223, #312, #318 ) ;
#43 = CARTESIAN_POINT ( 'NONE',  ( 12.50000000000000000, 0.000000000000000000, 20.00000000000000000 ) ) ;
#44 = ADVANCED_FACE ( 'NONE', ( #140 ), #214, .F. ) ;
#45 = CARTESIAN_POINT ( 'NONE',  ( 0.000000000000000000, 0.000000000000000000, 20.00000000000000000 ) ) ;
#46 = DIRECTION ( 'NONE',  ( 0.000000000000000000, 0.000000000000000000, -1.000000000000000000 ) ) ;
#47 = AXIS2_PLACEMENT_3D ( 'NONE', #73, #104, #230 ) ;
#48 = ORIENTED_EDGE ( 'NONE', *, *, #62, .F. ) ;
#49 = CARTESIAN_POINT ( 'NONE',  ( -12.50000000000000000, 1.530808498934191521E-15, 20.00000000000000000 ) ) ;
#50 = ORIENTED_EDGE ( 'NONE', *, *, #137, .F. ) ;
#51 = LINE ( 'NONE', #298, #197 ) ;
#52 = VERTEX_POINT ( 'NONE', #262 ) ;
#53 = DIRECTION ( 'NONE',  ( 0.000000000000000000, 0.000000000000000000, 1.000000000000000000 ) ) ;
#54 = ORIENTED_EDGE ( 'NONE', *, *, #148, .T. ) ;
#55 =( GEOMETRIC_REPRESENTATION_CONTEXT ( 3 ) GLOBAL_UNCERTAINTY_ASSIGNED_CONTEXT ( ( #27 ) ) GLOBAL_UNIT_ASSIGNED_CONTEXT ( ( #259, #109, #135 ) ) REPRESENTATION_CONTEXT ( 'NONE', 'WORKASPACE' ) );
#56 = PERSON_AND_ORGANIZATION_ROLE ( 'creator' ) ;
#57 = ORIENTED_EDGE ( 'NONE', *, *, #2, .F. ) ;
#58 = LINE ( 'NONE', #34, #120 ) ;
#59 = AXIS2_PLACEMENT_3D ( 'NONE', #276, #46, #150 ) ;
#60 = APPROVAL_STATUS ( 'not_yet_approved' ) ;
#61 = DIRECTION ( 'NONE',  ( 0.000000000000000000, 0.000000000000000000, 1.000000000000000000 ) ) ;
#62 = EDGE_CURVE ( 'NONE', #119, #156, #212, .T. ) ;
#63 = PERSON ( 'UNSPECIFIED', 'UNSPECIFIED', 'UNSPECIFIED', ('UNSPECIFIED'), ('UNSPECIFIED'), ('UNSPECIFIED') ) ;
#64 = CARTESIAN_POINT ( 'NONE',  ( 12.50000000000000000, 0.000000000000000000, 40.00000000000000000 ) ) ;
#65 = AXIS2_PLACEMENT_3D ( 'NONE', #241, #167, #92 ) ;
#66 = AXIS2_PLACEMENT_3D ( 'NONE', #13, #78, #183 ) ;
#67 = COORDINATED_UNIVERSAL_TIME_OFFSET ( 9, 0, .AHEAD. ) ;
#68 = EDGE_CURVE ( 'NONE', #132, #254, #14, .T. ) ;
#69 = DIRECTION ( 'NONE',  ( 0.000000000000000000, 0.000000000000000000, 1.000000000000000000 ) ) ;
#70 = DIRECTION ( 'NONE',  ( 1.000000000000000000, 0.000000000000000000, 0.000000000000000000 ) ) ;
#71 = CC_DESIGN_APPROVAL ( #273, ( #86 ) ) ;
#72 = CARTESIAN_POINT ( 'NONE',  ( -4.500000000000000000, 5.510910596163088569E-16, 7.000000000000000000 ) ) ;
#73 = CARTESIAN_POINT ( 'NONE',  ( 0.000000000000000000, 0.000000000000000000, 0.000000000000000000 ) ) ;
#74 = ORIENTED_EDGE ( 'NONE', *, *, #269, .F. ) ;
#75 = CARTESIAN_POINT ( 'NONE',  ( 0.000000000000000000, 0.000000000000000000, 40.00000000000000000 ) ) ;
#76 = EDGE_LOOP ( 'NONE', ( #130, #101, #105, #155 ) ) ;
#77 = APPROVAL_PERSON_ORGANIZATION ( #169, #222, #199 ) ;
#78 = DIRECTION ( 'NONE',  ( 0.000000000000000000, 0.000000000000000000, 1.000000000000000000 ) ) ;
#79 = EDGE_LOOP ( 'NONE', ( #229, #296 ) ) ;
#80 = CARTESIAN_POINT ( 'NONE',  ( 0.000000000000000000, 0.000000000000000000, 7.000000000000000000 ) ) ;
#81 = ORIENTED_EDGE ( 'NONE', *, *, #139, .F. ) ;
#82 = PERSON_AND_ORGANIZATION ( #63, #292 ) ;
#83 = CIRCLE ( 'NONE', #160, 12.50000000000000000 ) ;
#84 = PERSON_AND_ORGANIZATION ( #63, #292 ) ;
#85 = COORDINATED_UNIVERSAL_TIME_OFFSET ( 9, 0, .AHEAD. ) ;
#86 = PRODUCT_DEFINITION ( 'UNKNOWN', '', #225, #188 ) ;
#87 = FACE_OUTER_BOUND ( 'NONE', #277, .T. ) ;
#88 = DIRECTION ( 'NONE',  ( 0.000000000000000000, 0.000000000000000000, 1.000000000000000000 ) ) ;
#89 = DATE_TIME_ROLE ( 'classification_date' ) ;
#90 = CARTESIAN_POINT ( 'NONE',  ( -4.500000000000000000, 5.510910596163088569E-16, 0.000000000000000000 ) ) ;
#91 = APPROVAL_PERSON_ORGANIZATION ( #38, #211, #271 ) ;
#92 = DIRECTION ( 'NONE',  ( 1.000000000000000000, 0.000000000000000000, 0.000000000000000000 ) ) ;
#93 = CARTESIAN_POINT ( 'NONE',  ( 0.000000000000000000, 0.000000000000000000, 7.000000000000000000 ) ) ;
#94 = CC_DESIGN_PERSON_AND_ORGANIZATION_ASSIGNMENT ( #84, #106, ( #162 ) ) ;
#95 = FACE_OUTER_BOUND ( 'NONE', #327, .T. ) ;
#96 = EDGE_LOOP ( 'NONE', ( #263, #151, #258, #204 ) ) ;
#97 = FACE_BOUND ( 'NONE', #79, .T. ) ;
#98 = VERTEX_POINT ( 'NONE', #114 ) ;
#99 = DIRECTION ( 'NONE',  ( 0.000000000000000000, 0.000000000000000000, 1.000000000000000000 ) ) ;
#100 = EDGE_CURVE ( 'NONE', #103, #1, #250, .T. ) ;
#101 = ORIENTED_EDGE ( 'NONE', *, *, #287, .T. ) ;
#102 = DIRECTION ( 'NONE',  ( 0.000000000000000000, 0.000000000000000000, 1.000000000000000000 ) ) ;
#103 = VERTEX_POINT ( 'NONE', #247 ) ;
#104 = DIRECTION ( 'NONE',  ( 0.000000000000000000, 0.000000000000000000, 1.000000000000000000 ) ) ;
#105 = ORIENTED_EDGE ( 'NONE', *, *, #246, .T. ) ;
#106 = PERSON_AND_ORGANIZATION_ROLE ( 'design_owner' ) ;
#107 = DIRECTION ( 'NONE',  ( 0.000000000000000000, 0.000000000000000000, 1.000000000000000000 ) ) ;
#108 = AXIS2_PLACEMENT_3D ( 'NONE', #80, #102, #279 ) ;
#109 =( NAMED_UNIT ( * ) PLANE_ANGLE_UNIT ( ) SI_UNIT ( $, .RADIAN. ) );
#110 = CYLINDRICAL_SURFACE ( 'NONE', #266, 4.500000000000000000 ) ;
#111 = DIRECTION ( 'NONE',  ( 1.000000000000000000, 0.000000000000000000, 0.000000000000000000 ) ) ;
#112 = LOCAL_TIME ( 8, 50, 49.00000000000000000, #215 ) ;
#113 = DIRECTION ( 'NONE',  ( 0.000000000000000000, 0.000000000000000000, 1.000000000000000000 ) ) ;
#114 = CARTESIAN_POINT ( 'NONE',  ( 7.000000000000000000, 0.000000000000000000, 20.00000000000000000 ) ) ;
#115 = DATE_AND_TIME ( #163, #278 ) ;
#116 = DIRECTION ( 'NONE',  ( 0.000000000000000000, 0.000000000000000000, 1.000000000000000000 ) ) ;
#117 = SHAPE_DEFINITION_REPRESENTATION ( #314, #285 ) ;
#118 = FACE_OUTER_BOUND ( 'NONE', #96, .T. ) ;
#119 = VERTEX_POINT ( 'NONE', #172 ) ;
#120 = VECTOR ( 'NONE', #107, 1000.000000000000000 ) ;
#121 = CIRCLE ( 'NONE', #47, 4.500000000000000000 ) ;
#122 = DIRECTION ( 'NONE',  ( 1.000000000000000000, 0.000000000000000000, 0.000000000000000000 ) ) ;
#123 = EDGE_LOOP ( 'NONE', ( #50, #57 ) ) ;
#124 = FACE_OUTER_BOUND ( 'NONE', #76, .T. ) ;
#125 = ORIENTED_EDGE ( 'NONE', *, *, #293, .T. ) ;
#126 = DIRECTION ( 'NONE',  ( 0.000000000000000000, 0.000000000000000000, 1.000000000000000000 ) ) ;
#127 = ORIENTED_EDGE ( 'NONE', *, *, #68, .F. ) ;
#128 = APPLICATION_CONTEXT ( 'configuration controlled 3d designs of mechanical parts and assemblies' ) ;
#129 = CIRCLE ( 'NONE', #10, 7.000000000000000000 ) ;
#130 = ORIENTED_EDGE ( 'NONE', *, *, #100, .F. ) ;
#131 = DIRECTION ( 'NONE',  ( 1.000000000000000000, 0.000000000000000000, 0.000000000000000000 ) ) ;
#132 = VERTEX_POINT ( 'NONE', #43 ) ;
#133 = PERSON_AND_ORGANIZATION ( #63, #292 ) ;
#134 = AXIS2_PLACEMENT_3D ( 'NONE', #237, #157, #111 ) ;
#135 =( NAMED_UNIT ( * ) SI_UNIT ( $, .STERADIAN. ) SOLID_ANGLE_UNIT ( ) );
#136 = DIRECTION ( 'NONE',  ( 0.000000000000000000, 0.000000000000000000, 1.000000000000000000 ) ) ;
#137 = EDGE_CURVE ( 'NONE', #26, #177, #235, .T. ) ;
#138 = DIRECTION ( 'NONE',  ( 1.000000000000000000, 0.000000000000000000, 0.000000000000000000 ) ) ;
#139 = EDGE_CURVE ( 'NONE', #119, #52, #147, .T. ) ;
#140 = FACE_OUTER_BOUND ( 'NONE', #24, .T. ) ;
#141 = PERSON_AND_ORGANIZATION_ROLE ( 'design_supplier' ) ;
#142 = CARTESIAN_POINT ( 'NONE',  ( -12.50000000000000000, 1.530808498934191521E-15, 0.000000000000000000 ) ) ;
#143 = CALENDAR_DATE ( 2021, 25, 10 ) ;
#144 = CARTESIAN_POINT ( 'NONE',  ( 0.000000000000000000, 0.000000000000000000, 40.00000000000000000 ) ) ;
#145 = CIRCLE ( 'NONE', #42, 7.000000000000000000 ) ;
#146 = DATE_AND_TIME ( #143, #297 ) ;
#147 = LINE ( 'NONE', #220, #213 ) ;
#148 = EDGE_CURVE ( 'NONE', #1, #103, #145, .T. ) ;
#149 = PLANE ( 'NONE',  #30 ) ;
#150 = DIRECTION ( 'NONE',  ( -1.000000000000000000, 0.000000000000000000, 0.000000000000000000 ) ) ;
#151 = ORIENTED_EDGE ( 'NONE', *, *, #148, .F. ) ;
#152 = DIRECTION ( 'NONE',  ( 1.000000000000000000, 0.000000000000000000, 0.000000000000000000 ) ) ;
#153 = DIRECTION ( 'NONE',  ( 0.000000000000000000, 0.000000000000000000, 1.000000000000000000 ) ) ;
#154 = DIRECTION ( 'NONE',  ( 1.000000000000000000, 0.000000000000000000, 0.000000000000000000 ) ) ;
#155 = ORIENTED_EDGE ( 'NONE', *, *, #33, .F. ) ;
#156 = VERTEX_POINT ( 'NONE', #90 ) ;
#157 = DIRECTION ( 'NONE',  ( 0.000000000000000000, 0.000000000000000000, 1.000000000000000000 ) ) ;
#158 = CALENDAR_DATE ( 2021, 25, 10 ) ;
#159 = DIRECTION ( 'NONE',  ( 1.000000000000000000, 0.000000000000000000, 0.000000000000000000 ) ) ;
#160 = AXIS2_PLACEMENT_3D ( 'NONE', #45, #126, #152 ) ;
#161 = CC_DESIGN_PERSON_AND_ORGANIZATION_ASSIGNMENT ( #290, #311, ( #179 ) ) ;
#162 = PRODUCT ( 'bj300-08020', 'bj300-08020', '', ( #35 ) ) ;
#163 = CALENDAR_DATE ( 2021, 25, 10 ) ;
#164 = AXIS2_PLACEMENT_3D ( 'NONE', #305, #136, #159 ) ;
#165 = LOCAL_TIME ( 8, 50, 49.00000000000000000, #85 ) ;
#166 = LOCAL_TIME ( 8, 50, 49.00000000000000000, #67 ) ;
#167 = DIRECTION ( 'NONE',  ( 0.000000000000000000, 0.000000000000000000, 1.000000000000000000 ) ) ;
#168 = ORIENTED_EDGE ( 'NONE', *, *, #29, .T. ) ;
#169 = PERSON_AND_ORGANIZATION ( #63, #292 ) ;
#170 = DIRECTION ( 'NONE',  ( 1.000000000000000000, 0.000000000000000000, 0.000000000000000000 ) ) ;
#171 = AXIS2_PLACEMENT_3D ( 'NONE', #275, #326, #181 ) ;
#172 = CARTESIAN_POINT ( 'NONE',  ( 4.500000000000000000, 0.000000000000000000, 0.000000000000000000 ) ) ;
#173 = CC_DESIGN_PERSON_AND_ORGANIZATION_ASSIGNMENT ( #82, #56, ( #86 ) ) ;
#174 = FACE_BOUND ( 'NONE', #196, .T. ) ;
#175 = DIRECTION ( 'NONE',  ( 0.000000000000000000, 0.000000000000000000, 1.000000000000000000 ) ) ;
#176 = ADVANCED_FACE ( 'NONE', ( #268 ), #40, .T. ) ;
#177 = VERTEX_POINT ( 'NONE', #142 ) ;
#178 = CLOSED_SHELL ( 'NONE', ( #317, #208, #25, #301, #44, #295, #176, #248, #194 ) ) ;
#179 = SECURITY_CLASSIFICATION ( '', '', #291 ) ;
#180 = ORIENTED_EDGE ( 'NONE', *, *, #100, .T. ) ;
#181 = DIRECTION ( 'NONE',  ( -1.000000000000000000, 0.000000000000000000, 0.000000000000000000 ) ) ;
#182 = ORIENTED_EDGE ( 'NONE', *, *, #137, .T. ) ;
#183 = DIRECTION ( 'NONE',  ( 1.000000000000000000, 0.000000000000000000, 0.000000000000000000 ) ) ;
#184 = ORIENTED_EDGE ( 'NONE', *, *, #29, .F. ) ;
#185 = AXIS2_PLACEMENT_3D ( 'NONE', #253, #99, #131 ) ;
#186 = ORIENTED_EDGE ( 'NONE', *, *, #264, .F. ) ;
#187 = APPLICATION_CONTEXT ( 'configuration controlled 3d designs of mechanical parts and assemblies' ) ;
#188 = DESIGN_CONTEXT ( 'detailed design', #128, 'design' ) ;
#189 = DIRECTION ( 'NONE',  ( 0.000000000000000000, 0.000000000000000000, 1.000000000000000000 ) ) ;
#190 = CARTESIAN_POINT ( 'NONE',  ( -4.500000000000000000, 5.510910596163088569E-16, 40.00000000000000000 ) ) ;
#191 = EDGE_LOOP ( 'NONE', ( #182, #284, #127, #16 ) ) ;
#192 = CIRCLE ( 'NONE', #185, 7.000000000000000000 ) ;
#193 = APPLICATION_PROTOCOL_DEFINITION ( 'international standard', 'config_control_design', 1994, #187 ) ;
#194 = ADVANCED_FACE ( 'NONE', ( #118 ), #221, .F. ) ;
#195 = AXIS2_PLACEMENT_3D ( 'NONE', #36, #113, #138 ) ;
#196 = EDGE_LOOP ( 'NONE', ( #231, #125 ) ) ;
#197 = VECTOR ( 'NONE', #175, 1000.000000000000000 ) ;
#198 = DATE_AND_TIME ( #267, #166 ) ;
#199 = APPROVAL_ROLE ( '' ) ;
#200 = VERTEX_POINT ( 'NONE', #329 ) ;
#201 = APPROVAL_PERSON_ORGANIZATION ( #133, #273, #302 ) ;
#202 = DIRECTION ( 'NONE',  ( 1.000000000000000000, 0.000000000000000000, 0.000000000000000000 ) ) ;
#203 = DIRECTION ( 'NONE',  ( 0.000000000000000000, 0.000000000000000000, 1.000000000000000000 ) ) ;
#204 = ORIENTED_EDGE ( 'NONE', *, *, #218, .T. ) ;
#205 = CIRCLE ( 'NONE', #66, 4.500000000000000000 ) ;
#206 = FACE_BOUND ( 'NONE', #323, .T. ) ;
#207 = FACE_OUTER_BOUND ( 'NONE', #191, .T. ) ;
#208 = ADVANCED_FACE ( 'NONE', ( #207 ), #18, .T. ) ;
#209 = PRODUCT_RELATED_PRODUCT_CATEGORY ( 'detail', '', ( #162 ) ) ;
#210 = FACE_OUTER_BOUND ( 'NONE', #123, .T. ) ;
#211 = APPROVAL ( #288, 'UNSPECIFIED' ) ;
#212 = CIRCLE ( 'NONE', #303, 4.500000000000000000 ) ;
#213 = VECTOR ( 'NONE', #310, 1000.000000000000000 ) ;
#214 = CYLINDRICAL_SURFACE ( 'NONE', #164, 4.500000000000000000 ) ;
#215 = COORDINATED_UNIVERSAL_TIME_OFFSET ( 9, 0, .AHEAD. ) ;
#216 = DIRECTION ( 'NONE',  ( 1.000000000000000000, 0.000000000000000000, 0.000000000000000000 ) ) ;
#217 = CARTESIAN_POINT ( 'NONE',  ( 0.000000000000000000, 0.000000000000000000, 40.00000000000000000 ) ) ;
#218 = EDGE_CURVE ( 'NONE', #98, #200, #192, .T. ) ;
#219 = PERSON_AND_ORGANIZATION_ROLE ( 'creator' ) ;
#220 = CARTESIAN_POINT ( 'NONE',  ( 4.500000000000000000, 0.000000000000000000, 40.00000000000000000 ) ) ;
#221 = CYLINDRICAL_SURFACE ( 'NONE', #274, 7.000000000000000000 ) ;
#222 = APPROVAL ( #265, 'UNSPECIFIED' ) ;
#223 = CARTESIAN_POINT ( 'NONE',  ( 0.000000000000000000, 0.000000000000000000, 7.000000000000000000 ) ) ;
#224 = VECTOR ( 'NONE', #88, 1000.000000000000000 ) ;
#225 = PRODUCT_DEFINITION_FORMATION_WITH_SPECIFIED_SOURCE ( 'ANY', '', #162, .NOT_KNOWN. ) ;
#226 = CIRCLE ( 'NONE', #108, 4.500000000000000000 ) ;
#227 = CYLINDRICAL_SURFACE ( 'NONE', #134, 7.000000000000000000 ) ;
#228 = VERTEX_POINT ( 'NONE', #72 ) ;
#229 = ORIENTED_EDGE ( 'NONE', *, *, #218, .F. ) ;
#230 = DIRECTION ( 'NONE',  ( 1.000000000000000000, 0.000000000000000000, 0.000000000000000000 ) ) ;
#231 = ORIENTED_EDGE ( 'NONE', *, *, #62, .T. ) ;
#232 = LINE ( 'NONE', #294, #251 ) ;
#233 = DIRECTION ( 'NONE',  ( 0.000000000000000000, 0.000000000000000000, 1.000000000000000000 ) ) ;
#234 = AXIS2_PLACEMENT_3D ( 'NONE', #93, #243, #70 ) ;
#235 = CIRCLE ( 'NONE', #15, 12.50000000000000000 ) ;
#236 = ORIENTED_EDGE ( 'NONE', *, *, #261, .T. ) ;
#237 = CARTESIAN_POINT ( 'NONE',  ( 0.000000000000000000, 0.000000000000000000, 40.00000000000000000 ) ) ;
#238 = DIRECTION ( 'NONE',  ( 1.000000000000000000, 0.000000000000000000, 0.000000000000000000 ) ) ;
#239 = AXIS2_PLACEMENT_3D ( 'NONE', #144, #245, #170 ) ;
#240 = PERSON_AND_ORGANIZATION ( #63, #292 ) ;
#241 = CARTESIAN_POINT ( 'NONE',  ( 0.000000000000000000, 0.000000000000000000, 20.00000000000000000 ) ) ;
#242 = APPROVAL_DATE_TIME ( #115, #211 ) ;
#243 = DIRECTION ( 'NONE',  ( 0.000000000000000000, 0.000000000000000000, 1.000000000000000000 ) ) ;
#244 = EDGE_CURVE ( 'NONE', #228, #52, #226, .T. ) ;
#245 = DIRECTION ( 'NONE',  ( 0.000000000000000000, 0.000000000000000000, 1.000000000000000000 ) ) ;
#246 = EDGE_CURVE ( 'NONE', #200, #98, #129, .T. ) ;
#247 = CARTESIAN_POINT ( 'NONE',  ( -7.000000000000000000, 8.572527594031473190E-16, 7.000000000000000000 ) ) ;
#248 = ADVANCED_FACE ( 'NONE', ( #97, #95 ), #281, .F. ) ;
#249 = CARTESIAN_POINT ( 'NONE',  ( 4.500000000000000000, 0.000000000000000000, 0.000000000000000000 ) ) ;
#250 = CIRCLE ( 'NONE', #234, 7.000000000000000000 ) ;
#251 = VECTOR ( 'NONE', #282, 1000.000000000000000 ) ;
#252 = CC_DESIGN_DATE_AND_TIME_ASSIGNMENT ( #198, #89, ( #179 ) ) ;
#253 = CARTESIAN_POINT ( 'NONE',  ( 0.000000000000000000, 0.000000000000000000, 20.00000000000000000 ) ) ;
#254 = VERTEX_POINT ( 'NONE', #49 ) ;
#255 = FACE_OUTER_BOUND ( 'NONE', #283, .T. ) ;
#256 = ORIENTED_EDGE ( 'NONE', *, *, #68, .T. ) ;
#257 = VECTOR ( 'NONE', #233, 1000.000000000000000 ) ;
#258 = ORIENTED_EDGE ( 'NONE', *, *, #33, .T. ) ;
#259 =( LENGTH_UNIT ( ) NAMED_UNIT ( * ) SI_UNIT ( .MILLI., .METRE. ) );
#260 = ORIENTED_EDGE ( 'NONE', *, *, #7, .T. ) ;
#261 = EDGE_CURVE ( 'NONE', #254, #132, #83, .T. ) ;
#262 = CARTESIAN_POINT ( 'NONE',  ( 4.500000000000000000, 0.000000000000000000, 7.000000000000000000 ) ) ;
#263 = ORIENTED_EDGE ( 'NONE', *, *, #287, .F. ) ;
#264 = EDGE_CURVE ( 'NONE', #52, #228, #205, .T. ) ;
#265 = APPROVAL_STATUS ( 'not_yet_approved' ) ;
#266 = AXIS2_PLACEMENT_3D ( 'NONE', #217, #61, #238 ) ;
#267 = CALENDAR_DATE ( 2021, 25, 10 ) ;
#268 = FACE_OUTER_BOUND ( 'NONE', #325, .T. ) ;
#269 = EDGE_CURVE ( 'NONE', #177, #254, #232, .T. ) ;
#270 = ORIENTED_EDGE ( 'NONE', *, *, #244, .F. ) ;
#271 = APPROVAL_ROLE ( '' ) ;
#272 = CARTESIAN_POINT ( 'NONE',  ( 0.000000000000000000, 0.000000000000000000, 0.000000000000000000 ) ) ;
#273 = APPROVAL ( #60, 'UNSPECIFIED' ) ;
#274 = AXIS2_PLACEMENT_3D ( 'NONE', #324, #203, #202 ) ;
#275 = CARTESIAN_POINT ( 'NONE',  ( 12.50000000000000000, 0.000000000000000000, 20.00000000000000000 ) ) ;
#276 = CARTESIAN_POINT ( 'NONE',  ( 7.000000000000000000, 0.000000000000000000, 7.000000000000000000 ) ) ;
#277 = EDGE_LOOP ( 'NONE', ( #280, #168, #299, #81 ) ) ;
#278 = LOCAL_TIME ( 8, 50, 49.00000000000000000, #39 ) ;
#279 = DIRECTION ( 'NONE',  ( 1.000000000000000000, 0.000000000000000000, 0.000000000000000000 ) ) ;
#280 = ORIENTED_EDGE ( 'NONE', *, *, #293, .F. ) ;
#281 = PLANE ( 'NONE',  #171 ) ;
#282 = DIRECTION ( 'NONE',  ( 0.000000000000000000, 0.000000000000000000, 1.000000000000000000 ) ) ;
#283 = EDGE_LOOP ( 'NONE', ( #54, #180 ) ) ;
#284 = ORIENTED_EDGE ( 'NONE', *, *, #269, .T. ) ;
#285 = ADVANCED_BREP_SHAPE_REPRESENTATION ( 'bj300-08020', ( #315, #320 ), #55 ) ;
#286 = APPLICATION_PROTOCOL_DEFINITION ( 'international standard', 'config_control_design', 1994, #128 ) ;
#287 = EDGE_CURVE ( 'NONE', #103, #200, #51, .T. ) ;
#288 = APPROVAL_STATUS ( 'not_yet_approved' ) ;
#289 = ORIENTED_EDGE ( 'NONE', *, *, #139, .T. ) ;
#290 = PERSON_AND_ORGANIZATION ( #63, #292 ) ;
#291 = SECURITY_CLASSIFICATION_LEVEL ( 'unclassified' ) ;
#292 = ORGANIZATION ( 'UNSPECIFIED', 'UNSPECIFIED', '' ) ;
#293 = EDGE_CURVE ( 'NONE', #156, #119, #121, .T. ) ;
#294 = CARTESIAN_POINT ( 'NONE',  ( -12.50000000000000000, 1.530808498934191521E-15, 40.00000000000000000 ) ) ;
#295 = ADVANCED_FACE ( 'NONE', ( #210, #174 ), #149, .F. ) ;
#296 = ORIENTED_EDGE ( 'NONE', *, *, #246, .F. ) ;
#297 = LOCAL_TIME ( 8, 50, 49.00000000000000000, #41 ) ;
#298 = CARTESIAN_POINT ( 'NONE',  ( -7.000000000000000000, 8.572527594031473190E-16, 40.00000000000000000 ) ) ;
#299 = ORIENTED_EDGE ( 'NONE', *, *, #244, .T. ) ;
#300 = DIRECTION ( 'NONE',  ( 1.000000000000000000, 0.000000000000000000, 0.000000000000000000 ) ) ;
#301 = ADVANCED_FACE ( 'NONE', ( #206, #255 ), #21, .F. ) ;
#302 = APPROVAL_ROLE ( '' ) ;
#303 = AXIS2_PLACEMENT_3D ( 'NONE', #32, #69, #316 ) ;
#304 = CC_DESIGN_PERSON_AND_ORGANIZATION_ASSIGNMENT ( #240, #219, ( #225 ) ) ;
#305 = CARTESIAN_POINT ( 'NONE',  ( 0.000000000000000000, 0.000000000000000000, 40.00000000000000000 ) ) ;
#306 = LINE ( 'NONE', #64, #257 ) ;
#307 = CARTESIAN_POINT ( 'NONE',  ( 0.000000000000000000, 0.000000000000000000, 0.000000000000000000 ) ) ;
#308 = DATE_TIME_ROLE ( 'creation_date' ) ;
#309 = LINE ( 'NONE', #190, #224 ) ;
#310 = DIRECTION ( 'NONE',  ( 0.000000000000000000, 0.000000000000000000, 1.000000000000000000 ) ) ;
#311 = PERSON_AND_ORGANIZATION_ROLE ( 'classification_officer' ) ;
#312 = DIRECTION ( 'NONE',  ( 0.000000000000000000, 0.000000000000000000, 1.000000000000000000 ) ) ;
#313 = CC_DESIGN_APPROVAL ( #211, ( #225 ) ) ;
#314 = PRODUCT_DEFINITION_SHAPE ( 'NONE', 'NONE',  #86 ) ;
#315 = MANIFOLD_SOLID_BREP ( 'Imported1', #178 ) ;
#316 = DIRECTION ( 'NONE',  ( 1.000000000000000000, 0.000000000000000000, 0.000000000000000000 ) ) ;
#317 = ADVANCED_FACE ( 'NONE', ( #124 ), #227, .F. ) ;
#318 = DIRECTION ( 'NONE',  ( 1.000000000000000000, 0.000000000000000000, 0.000000000000000000 ) ) ;
#319 = CC_DESIGN_DATE_AND_TIME_ASSIGNMENT ( #31, #308, ( #86 ) ) ;
#320 = AXIS2_PLACEMENT_3D ( 'NONE', #307, #189, #216 ) ;
#321 = CC_DESIGN_APPROVAL ( #222, ( #179 ) ) ;
#322 = CARTESIAN_POINT ( 'NONE',  ( 0.000000000000000000, 0.000000000000000000, 20.00000000000000000 ) ) ;
#323 = EDGE_LOOP ( 'NONE', ( #186, #270 ) ) ;
#324 = CARTESIAN_POINT ( 'NONE',  ( 0.000000000000000000, 0.000000000000000000, 40.00000000000000000 ) ) ;
#325 = EDGE_LOOP ( 'NONE', ( #74, #328, #260, #19 ) ) ;
#326 = DIRECTION ( 'NONE',  ( 0.000000000000000000, 0.000000000000000000, -1.000000000000000000 ) ) ;
#327 = EDGE_LOOP ( 'NONE', ( #256, #236 ) ) ;
#328 = ORIENTED_EDGE ( 'NONE', *, *, #2, .T. ) ;
#329 = CARTESIAN_POINT ( 'NONE',  ( -7.000000000000000000, 8.572527594031473190E-16, 20.00000000000000000 ) ) ;
ENDSEC;
END-ISO-10303-21;
