ISO-10303-21;
HEADER;
FILE_DESCRIPTION (( 'STEP AP203' ),
    '1' );
FILE_NAME ('bj720-25001.STEP',
    '2021-10-24T23:59:26',
    ( '' ),
    ( '' ),
    'SwSTEP 2.0',
    'SolidWorks 2020',
    '' );
FILE_SCHEMA (( 'CONFIG_CONTROL_DESIGN' ));
ENDSEC;

DATA;
#1 =( NAMED_UNIT ( * ) PLANE_ANGLE_UNIT ( ) SI_UNIT ( $, .RADIAN. ) );
#2 = EDGE_LOOP ( 'NONE', ( #116, #198 ) ) ;
#3 =( LENGTH_UNIT ( ) NAMED_UNIT ( * ) SI_UNIT ( .MILLI., .METRE. ) );
#4 = VERTEX_POINT ( 'NONE', #204 ) ;
#5 = AXIS2_PLACEMENT_3D ( 'NONE', #7, #339, #233 ) ;
#6 = LOCAL_TIME ( 8, 59, 26.00000000000000000, #118 ) ;
#7 = CARTESIAN_POINT ( 'NONE',  ( 0.000000000000000000, 0.000000000000000000, 39.00000000000000000 ) ) ;
#8 = CC_DESIGN_PERSON_AND_ORGANIZATION_ASSIGNMENT ( #94, #268, ( #40 ) ) ;
#9 = ORIENTED_EDGE ( 'NONE', *, *, #58, .T. ) ;
#10 = DIRECTION ( 'NONE',  ( 0.000000000000000000, 0.000000000000000000, 1.000000000000000000 ) ) ;
#11 = PERSON_AND_ORGANIZATION ( #81, #13 ) ;
#12 = AXIS2_PLACEMENT_3D ( 'NONE', #286, #186, #129 ) ;
#13 = ORGANIZATION ( 'UNSPECIFIED', 'UNSPECIFIED', '' ) ;
#14 = CARTESIAN_POINT ( 'NONE',  ( 0.000000000000000000, 0.000000000000000000, 0.000000000000000000 ) ) ;
#15 = DIRECTION ( 'NONE',  ( 1.000000000000000000, 0.000000000000000000, 0.000000000000000000 ) ) ;
#16 = MECHANICAL_CONTEXT ( 'NONE', #131, 'mechanical' ) ;
#17 = CONICAL_SURFACE ( 'NONE', #207, 12.50000000000000000, 0.5235987755982992597 ) ;
#18 = DATE_TIME_ROLE ( 'classification_date' ) ;
#19 = CC_DESIGN_APPROVAL ( #175, ( #240 ) ) ;
#20 = DIRECTION ( 'NONE',  ( 1.000000000000000000, 0.000000000000000000, 0.000000000000000000 ) ) ;
#21 = CARTESIAN_POINT ( 'NONE',  ( 12.50000000000000000, 0.000000000000000000, 3.000000000000000000 ) ) ;
#22 = DIRECTION ( 'NONE',  ( 0.000000000000000000, 0.000000000000000000, 1.000000000000000000 ) ) ;
#23 = EDGE_LOOP ( 'NONE', ( #199, #60, #80, #99 ) ) ;
#24 = CC_DESIGN_PERSON_AND_ORGANIZATION_ASSIGNMENT ( #61, #316, ( #54 ) ) ;
#25 = DIRECTION ( 'NONE',  ( 0.000000000000000000, 0.000000000000000000, 1.000000000000000000 ) ) ;
#26 = CARTESIAN_POINT ( 'NONE',  ( 0.000000000000000000, 0.000000000000000000, 44.00000000000000000 ) ) ;
#27 = AXIS2_PLACEMENT_3D ( 'NONE', #71, #25, #352 ) ;
#28 = ORIENTED_EDGE ( 'NONE', *, *, #193, .F. ) ;
#29 = EDGE_CURVE ( 'NONE', #174, #111, #324, .T. ) ;
#30 = VERTEX_POINT ( 'NONE', #194 ) ;
#31 = ORIENTED_EDGE ( 'NONE', *, *, #68, .F. ) ;
#32 = VECTOR ( 'NONE', #196, 1000.000000000000000 ) ;
#33 = PERSON_AND_ORGANIZATION ( #81, #13 ) ;
#34 = APPROVAL_ROLE ( '' ) ;
#35 = CARTESIAN_POINT ( 'NONE',  ( -10.76794919243111970, 1.424750975061700707E-15, 0.000000000000000000 ) ) ;
#36 = COORDINATED_UNIVERSAL_TIME_OFFSET ( 9, 0, .AHEAD. ) ;
#37 = DATE_AND_TIME ( #91, #353 ) ;
#38 = CIRCLE ( 'NONE', #258, 9.613248654051849584 ) ;
#39 = APPROVAL ( #343, 'UNSPECIFIED' ) ;
#40 = PRODUCT_DEFINITION_FORMATION_WITH_SPECIFIED_SOURCE ( 'ANY', '', #54, .NOT_KNOWN. ) ;
#41 = CARTESIAN_POINT ( 'NONE',  ( 0.000000000000000000, 0.000000000000000000, 49.00000000000000000 ) ) ;
#42 = DIRECTION ( 'NONE',  ( -1.000000000000000000, 0.000000000000000000, 0.000000000000000000 ) ) ;
#43 = CARTESIAN_POINT ( 'NONE',  ( 0.000000000000000000, 0.000000000000000000, 44.00000000000000000 ) ) ;
#44 = DIRECTION ( 'NONE',  ( 0.000000000000000000, 0.000000000000000000, 1.000000000000000000 ) ) ;
#45 = CIRCLE ( 'NONE', #183, 12.50000000000000000 ) ;
#46 = CARTESIAN_POINT ( 'NONE',  ( 0.000000000000000000, 0.000000000000000000, 39.00000000000000000 ) ) ;
#47 = AXIS2_PLACEMENT_3D ( 'NONE', #14, #210, #15 ) ;
#48 = FACE_OUTER_BOUND ( 'NONE', #172, .T. ) ;
#49 = UNCERTAINTY_MEASURE_WITH_UNIT (LENGTH_MEASURE( 1.000000000000000082E-05 ), #3, 'distance_accuracy_value', 'NONE');
#50 = ADVANCED_FACE ( 'NONE', ( #349 ), #130, .F. ) ;
#51 = EDGE_LOOP ( 'NONE', ( #114, #246, #140, #112 ) ) ;
#52 = CONICAL_SURFACE ( 'NONE', #145, 12.50000000000000000, 0.5235987755982987046 ) ;
#53 = DIRECTION ( 'NONE',  ( 1.000000000000000000, 0.000000000000000000, 0.000000000000000000 ) ) ;
#54 = PRODUCT ( 'bj720-25001', 'bj720-25001', '', ( #16 ) ) ;
#55 = VERTEX_POINT ( 'NONE', #191 ) ;
#56 = AXIS2_PLACEMENT_3D ( 'NONE', #46, #128, #74 ) ;
#57 = CARTESIAN_POINT ( 'NONE',  ( -2.500000000000000000, 3.061616997868383141E-16, 50.00000000000000000 ) ) ;
#58 = EDGE_CURVE ( 'NONE', #311, #231, #308, .T. ) ;
#59 = APPROVAL_ROLE ( '' ) ;
#60 = ORIENTED_EDGE ( 'NONE', *, *, #127, .T. ) ;
#61 = PERSON_AND_ORGANIZATION ( #81, #13 ) ;
#62 = APPROVAL_ROLE ( '' ) ;
#63 = ADVANCED_FACE ( 'NONE', ( #218 ), #164, .F. ) ;
#64 = CIRCLE ( 'NONE', #75, 12.50000000000000000 ) ;
#65 = ORIENTED_EDGE ( 'NONE', *, *, #205, .F. ) ;
#66 = DIRECTION ( 'NONE',  ( 1.000000000000000000, 0.000000000000000000, 0.000000000000000000 ) ) ;
#67 = ORIENTED_EDGE ( 'NONE', *, *, #110, .F. ) ;
#68 = EDGE_CURVE ( 'NONE', #119, #4, #113, .T. ) ;
#69 = VERTEX_POINT ( 'NONE', #132 ) ;
#70 = DIRECTION ( 'NONE',  ( 1.000000000000000000, 0.000000000000000000, 0.000000000000000000 ) ) ;
#71 = CARTESIAN_POINT ( 'NONE',  ( 0.000000000000000000, 0.000000000000000000, 50.00000000000000000 ) ) ;
#72 = CC_DESIGN_PERSON_AND_ORGANIZATION_ASSIGNMENT ( #345, #125, ( #309 ) ) ;
#73 = AXIS2_PLACEMENT_3D ( 'NONE', #117, #134, #70 ) ;
#74 = DIRECTION ( 'NONE',  ( 1.000000000000000000, 0.000000000000000000, 0.000000000000000000 ) ) ;
#75 = AXIS2_PLACEMENT_3D ( 'NONE', #326, #303, #20 ) ;
#76 = DIRECTION ( 'NONE',  ( 0.000000000000000000, 0.000000000000000000, -1.000000000000000000 ) ) ;
#77 = EDGE_CURVE ( 'NONE', #257, #55, #251, .T. ) ;
#78 = CARTESIAN_POINT ( 'NONE',  ( 2.500000000000000000, 0.000000000000000000, 50.00000000000000000 ) ) ;
#79 = DIRECTION ( 'NONE',  ( 0.000000000000000000, 0.000000000000000000, 1.000000000000000000 ) ) ;
#80 = ORIENTED_EDGE ( 'NONE', *, *, #153, .T. ) ;
#81 = PERSON ( 'UNSPECIFIED', 'UNSPECIFIED', 'UNSPECIFIED', ('UNSPECIFIED'), ('UNSPECIFIED'), ('UNSPECIFIED') ) ;
#82 = ORIENTED_EDGE ( 'NONE', *, *, #115, .F. ) ;
#83 = EDGE_LOOP ( 'NONE', ( #230, #155, #67, #173 ) ) ;
#84 = CIRCLE ( 'NONE', #12, 2.500000000000000000 ) ;
#85 = CC_DESIGN_APPROVAL ( #255, ( #40 ) ) ;
#86 = ORIENTED_EDGE ( 'NONE', *, *, #127, .F. ) ;
#87 = ORIENTED_EDGE ( 'NONE', *, *, #205, .T. ) ;
#88 = EDGE_CURVE ( 'NONE', #111, #174, #264, .T. ) ;
#89 = CARTESIAN_POINT ( 'NONE',  ( 0.000000000000000000, 0.000000000000000000, 3.000000000000000000 ) ) ;
#90 = AXIS2_PLACEMENT_3D ( 'NONE', #106, #44, #66 ) ;
#91 = CALENDAR_DATE ( 2021, 25, 10 ) ;
#92 = ADVANCED_FACE ( 'NONE', ( #355 ), #52, .T. ) ;
#93 = PERSON_AND_ORGANIZATION ( #81, #13 ) ;
#94 = PERSON_AND_ORGANIZATION ( #81, #13 ) ;
#95 = ADVANCED_FACE ( 'NONE', ( #336 ), #260, .T. ) ;
#96 = FACE_OUTER_BOUND ( 'NONE', #166, .T. ) ;
#97 = DIRECTION ( 'NONE',  ( 1.000000000000000000, 0.000000000000000000, 0.000000000000000000 ) ) ;
#98 = DATE_TIME_ROLE ( 'creation_date' ) ;
#99 = ORIENTED_EDGE ( 'NONE', *, *, #348, .F. ) ;
#100 = DIRECTION ( 'NONE',  ( 0.000000000000000000, 0.000000000000000000, 1.000000000000000000 ) ) ;
#101 = LINE ( 'NONE', #329, #102 ) ;
#102 = VECTOR ( 'NONE', #107, 1000.000000000000114 ) ;
#103 = LOCAL_TIME ( 8, 59, 26.00000000000000000, #36 ) ;
#104 = EDGE_CURVE ( 'NONE', #111, #261, #147, .T. ) ;
#105 = CYLINDRICAL_SURFACE ( 'NONE', #27, 12.50000000000000000 ) ;
#106 = CARTESIAN_POINT ( 'NONE',  ( 0.000000000000000000, 0.000000000000000000, 39.00000000000000000 ) ) ;
#107 = DIRECTION ( 'NONE',  ( -0.5000000000000003331, 0.000000000000000000, -0.8660254037844383745 ) ) ;
#108 = AXIS2_PLACEMENT_3D ( 'NONE', #203, #79, #197 ) ;
#109 = LINE ( 'NONE', #192, #189 ) ;
#110 = EDGE_CURVE ( 'NONE', #4, #119, #292, .T. ) ;
#111 = VERTEX_POINT ( 'NONE', #222 ) ;
#112 = ORIENTED_EDGE ( 'NONE', *, *, #104, .F. ) ;
#113 = CIRCLE ( 'NONE', #162, 12.50000000000000000 ) ;
#114 = ORIENTED_EDGE ( 'NONE', *, *, #88, .T. ) ;
#115 = EDGE_CURVE ( 'NONE', #334, #119, #285, .T. ) ;
#116 = ORIENTED_EDGE ( 'NONE', *, *, #88, .F. ) ;
#117 = CARTESIAN_POINT ( 'NONE',  ( 0.000000000000000000, 0.000000000000000000, 0.000000000000000000 ) ) ;
#118 = COORDINATED_UNIVERSAL_TIME_OFFSET ( 9, 0, .AHEAD. ) ;
#119 = VERTEX_POINT ( 'NONE', #281 ) ;
#120 = DIRECTION ( 'NONE',  ( 0.000000000000000000, 0.000000000000000000, -1.000000000000000000 ) ) ;
#121 = ORIENTED_EDGE ( 'NONE', *, *, #236, .T. ) ;
#122 = SECURITY_CLASSIFICATION_LEVEL ( 'unclassified' ) ;
#123 = CARTESIAN_POINT ( 'NONE',  ( 0.000000000000000000, 0.000000000000000000, 3.000000000000000000 ) ) ;
#124 = EDGE_LOOP ( 'NONE', ( #310, #267 ) ) ;
#125 = PERSON_AND_ORGANIZATION_ROLE ( 'classification_officer' ) ;
#126 = CLOSED_SHELL ( 'NONE', ( #211, #322, #217, #92, #63, #313, #263, #143, #148, #50, #95 ) ) ;
#127 = EDGE_CURVE ( 'NONE', #311, #55, #314, .T. ) ;
#128 = DIRECTION ( 'NONE',  ( 0.000000000000000000, 0.000000000000000000, 1.000000000000000000 ) ) ;
#129 = DIRECTION ( 'NONE',  ( 1.000000000000000000, 0.000000000000000000, 0.000000000000000000 ) ) ;
#130 = CYLINDRICAL_SURFACE ( 'NONE', #304, 2.500000000000000000 ) ;
#131 = APPLICATION_CONTEXT ( 'configuration controlled 3d designs of mechanical parts and assemblies' ) ;
#132 = CARTESIAN_POINT ( 'NONE',  ( -9.613248654051849584, 0.000000000000000000, 49.00000000000000000 ) ) ;
#133 = VECTOR ( 'NONE', #288, 1000.000000000000000 ) ;
#134 = DIRECTION ( 'NONE',  ( 0.000000000000000000, 0.000000000000000000, 1.000000000000000000 ) ) ;
#135 = DIRECTION ( 'NONE',  ( 0.000000000000000000, 0.000000000000000000, 1.000000000000000000 ) ) ;
#136 = FACE_OUTER_BOUND ( 'NONE', #307, .T. ) ;
#137 = CARTESIAN_POINT ( 'NONE',  ( 9.613248654051849584, 0.000000000000000000, 49.00000000000000000 ) ) ;
#138 = APPLICATION_CONTEXT ( 'configuration controlled 3d designs of mechanical parts and assemblies' ) ;
#139 = AXIS2_PLACEMENT_3D ( 'NONE', #160, #100, #323 ) ;
#140 = ORIENTED_EDGE ( 'NONE', *, *, #190, .F. ) ;
#141 = ORIENTED_EDGE ( 'NONE', *, *, #201, .T. ) ;
#142 = ORIENTED_EDGE ( 'NONE', *, *, #153, .F. ) ;
#143 = ADVANCED_FACE ( 'NONE', ( #161 ), #17, .T. ) ;
#144 = ORIENTED_EDGE ( 'NONE', *, *, #29, .T. ) ;
#145 = AXIS2_PLACEMENT_3D ( 'NONE', #171, #335, #53 ) ;
#146 = ORIENTED_EDGE ( 'NONE', *, *, #104, .T. ) ;
#147 = LINE ( 'NONE', #206, #133 ) ;
#148 = ADVANCED_FACE ( 'NONE', ( #195, #152 ), #296, .F. ) ;
#149 = APPROVAL_DATE_TIME ( #289, #255 ) ;
#150 = LINE ( 'NONE', #78, #32 ) ;
#151 = DATE_AND_TIME ( #346, #299 ) ;
#152 = FACE_OUTER_BOUND ( 'NONE', #124, .T. ) ;
#153 = EDGE_CURVE ( 'NONE', #55, #257, #84, .T. ) ;
#154 = CALENDAR_DATE ( 2021, 25, 10 ) ;
#155 = ORIENTED_EDGE ( 'NONE', *, *, #115, .T. ) ;
#156 = EDGE_CURVE ( 'NONE', #261, #4, #321, .T. ) ;
#157 = DIRECTION ( 'NONE',  ( 0.000000000000000000, 0.000000000000000000, 1.000000000000000000 ) ) ;
#158 = APPROVAL_STATUS ( 'not_yet_approved' ) ;
#159 = VECTOR ( 'NONE', #271, 1000.000000000000000 ) ;
#160 = CARTESIAN_POINT ( 'NONE',  ( 0.000000000000000000, 0.000000000000000000, 0.000000000000000000 ) ) ;
#161 = FACE_OUTER_BOUND ( 'NONE', #241, .T. ) ;
#162 = AXIS2_PLACEMENT_3D ( 'NONE', #351, #305, #347 ) ;
#163 = CONICAL_SURFACE ( 'NONE', #208, 12.50000000000000000, 0.5235987755982992597 ) ;
#164 = PLANE ( 'NONE',  #282 ) ;
#165 = CC_DESIGN_DATE_AND_TIME_ASSIGNMENT ( #295, #98, ( #240 ) ) ;
#166 = EDGE_LOOP ( 'NONE', ( #259, #144, #146, #177 ) ) ;
#167 = DIRECTION ( 'NONE',  ( 0.000000000000000000, 0.000000000000000000, 1.000000000000000000 ) ) ;
#168 = FACE_OUTER_BOUND ( 'NONE', #23, .T. ) ;
#169 = LINE ( 'NONE', #306, #270 ) ;
#170 = AXIS2_PLACEMENT_3D ( 'NONE', #215, #167, #298 ) ;
#171 = CARTESIAN_POINT ( 'NONE',  ( 0.000000000000000000, 0.000000000000000000, 3.000000000000000000 ) ) ;
#172 = EDGE_LOOP ( 'NONE', ( #315, #283, #221, #65 ) ) ;
#173 = ORIENTED_EDGE ( 'NONE', *, *, #156, .F. ) ;
#174 = VERTEX_POINT ( 'NONE', #35 ) ;
#175 = APPROVAL ( #262, 'UNSPECIFIED' ) ;
#176 = DIRECTION ( 'NONE',  ( -1.000000000000000000, 0.000000000000000000, 0.000000000000000000 ) ) ;
#177 = ORIENTED_EDGE ( 'NONE', *, *, #236, .F. ) ;
#178 = CYLINDRICAL_SURFACE ( 'NONE', #108, 12.50000000000000000 ) ;
#179 = CC_DESIGN_DATE_AND_TIME_ASSIGNMENT ( #290, #18, ( #309 ) ) ;
#180 = COORDINATED_UNIVERSAL_TIME_OFFSET ( 9, 0, .AHEAD. ) ;
#181 = COORDINATED_UNIVERSAL_TIME_OFFSET ( 9, 0, .AHEAD. ) ;
#182 = PERSON_AND_ORGANIZATION_ROLE ( 'creator' ) ;
#183 = AXIS2_PLACEMENT_3D ( 'NONE', #123, #185, #280 ) ;
#184 = APPLICATION_PROTOCOL_DEFINITION ( 'international standard', 'config_control_design', 1994, #138 ) ;
#185 = DIRECTION ( 'NONE',  ( 0.000000000000000000, 0.000000000000000000, 1.000000000000000000 ) ) ;
#186 = DIRECTION ( 'NONE',  ( 0.000000000000000000, 0.000000000000000000, 1.000000000000000000 ) ) ;
#187 = APPLICATION_PROTOCOL_DEFINITION ( 'international standard', 'config_control_design', 1994, #131 ) ;
#188 = DIRECTION ( 'NONE',  ( 1.000000000000000000, 0.000000000000000000, 0.000000000000000000 ) ) ;
#189 = VECTOR ( 'NONE', #300, 1000.000000000000114 ) ;
#190 = EDGE_CURVE ( 'NONE', #261, #334, #45, .T. ) ;
#191 = CARTESIAN_POINT ( 'NONE',  ( -2.500000000000000000, 3.061616997868383141E-16, 49.00000000000000000 ) ) ;
#192 = CARTESIAN_POINT ( 'NONE',  ( 12.50000000000000000, 1.530808498934191521E-15, 44.00000000000000000 ) ) ;
#193 = EDGE_CURVE ( 'NONE', #69, #30, #38, .T. ) ;
#194 = CARTESIAN_POINT ( 'NONE',  ( 9.613248654051849584, 1.354045959146705647E-15, 49.00000000000000000 ) ) ;
#195 = FACE_BOUND ( 'NONE', #338, .T. ) ;
#196 = DIRECTION ( 'NONE',  ( 0.000000000000000000, 0.000000000000000000, 1.000000000000000000 ) ) ;
#197 = DIRECTION ( 'NONE',  ( 1.000000000000000000, 0.000000000000000000, 0.000000000000000000 ) ) ;
#198 = ORIENTED_EDGE ( 'NONE', *, *, #29, .F. ) ;
#199 = ORIENTED_EDGE ( 'NONE', *, *, #58, .F. ) ;
#200 = AXIS2_PLACEMENT_3D ( 'NONE', #137, #120, #176 ) ;
#201 = EDGE_CURVE ( 'NONE', #231, #311, #220, .T. ) ;
#202 = AXIS2_PLACEMENT_3D ( 'NONE', #89, #278, #354 ) ;
#203 = CARTESIAN_POINT ( 'NONE',  ( 0.000000000000000000, 0.000000000000000000, 50.00000000000000000 ) ) ;
#204 = CARTESIAN_POINT ( 'NONE',  ( 12.50000000000000000, 0.000000000000000000, 44.00000000000000000 ) ) ;
#205 = EDGE_CURVE ( 'NONE', #69, #119, #101, .T. ) ;
#206 = CARTESIAN_POINT ( 'NONE',  ( 12.50000000000000000, 0.000000000000000000, 3.000000000000000000 ) ) ;
#207 = AXIS2_PLACEMENT_3D ( 'NONE', #26, #253, #225 ) ;
#208 = AXIS2_PLACEMENT_3D ( 'NONE', #327, #76, #42 ) ;
#209 = MANIFOLD_SOLID_BREP ( 'Imported1', #126 ) ;
#210 = DIRECTION ( 'NONE',  ( 0.000000000000000000, 0.000000000000000000, 1.000000000000000000 ) ) ;
#211 = ADVANCED_FACE ( 'NONE', ( #168 ), #219, .F. ) ;
#212 = VECTOR ( 'NONE', #10, 1000.000000000000000 ) ;
#213 = CONICAL_SURFACE ( 'NONE', #202, 12.50000000000000000, 0.5235987755982987046 ) ;
#214 = CALENDAR_DATE ( 2021, 25, 10 ) ;
#215 = CARTESIAN_POINT ( 'NONE',  ( 0.000000000000000000, 0.000000000000000000, 49.00000000000000000 ) ) ;
#216 = SHAPE_DEFINITION_REPRESENTATION ( #250, #340 ) ;
#217 = ADVANCED_FACE ( 'NONE', ( #242 ), #105, .T. ) ;
#218 = FACE_OUTER_BOUND ( 'NONE', #2, .T. ) ;
#219 = CYLINDRICAL_SURFACE ( 'NONE', #287, 2.500000000000000000 ) ;
#220 = CIRCLE ( 'NONE', #90, 2.500000000000000000 ) ;
#221 = ORIENTED_EDGE ( 'NONE', *, *, #110, .T. ) ;
#222 = CARTESIAN_POINT ( 'NONE',  ( 10.76794919243111970, 0.000000000000000000, 0.000000000000000000 ) ) ;
#223 = ORIENTED_EDGE ( 'NONE', *, *, #226, .F. ) ;
#224 = ORIENTED_EDGE ( 'NONE', *, *, #77, .F. ) ;
#225 = DIRECTION ( 'NONE',  ( -1.000000000000000000, 0.000000000000000000, 0.000000000000000000 ) ) ;
#226 = EDGE_CURVE ( 'NONE', #30, #4, #109, .T. ) ;
#227 = ORIENTED_EDGE ( 'NONE', *, *, #156, .T. ) ;
#228 = AXIS2_PLACEMENT_3D ( 'NONE', #43, #22, #243 ) ;
#229 = APPROVAL_PERSON_ORGANIZATION ( #33, #175, #59 ) ;
#230 = ORIENTED_EDGE ( 'NONE', *, *, #190, .T. ) ;
#231 = VERTEX_POINT ( 'NONE', #276 ) ;
#232 = CC_DESIGN_PERSON_AND_ORGANIZATION_ASSIGNMENT ( #319, #182, ( #240 ) ) ;
#233 = DIRECTION ( 'NONE',  ( 1.000000000000000000, 0.000000000000000000, 0.000000000000000000 ) ) ;
#234 = DESIGN_CONTEXT ( 'detailed design', #138, 'design' ) ;
#235 = AXIS2_PLACEMENT_3D ( 'NONE', #41, #332, #291 ) ;
#236 = EDGE_CURVE ( 'NONE', #334, #261, #64, .T. ) ;
#237 = CARTESIAN_POINT ( 'NONE',  ( -12.50000000000000000, 1.530808498934191521E-15, 3.000000000000000000 ) ) ;
#238 = LOCAL_TIME ( 8, 59, 26.00000000000000000, #180 ) ;
#239 = APPROVAL_DATE_TIME ( #37, #39 ) ;
#240 = PRODUCT_DEFINITION ( 'UNKNOWN', '', #40, #234 ) ;
#241 = EDGE_LOOP ( 'NONE', ( #223, #28, #87, #333 ) ) ;
#242 = FACE_OUTER_BOUND ( 'NONE', #83, .T. ) ;
#243 = DIRECTION ( 'NONE',  ( 1.000000000000000000, 0.000000000000000000, 0.000000000000000000 ) ) ;
#244 =( GEOMETRIC_REPRESENTATION_CONTEXT ( 3 ) GLOBAL_UNCERTAINTY_ASSIGNED_CONTEXT ( ( #49 ) ) GLOBAL_UNIT_ASSIGNED_CONTEXT ( ( #3, #1, #331 ) ) REPRESENTATION_CONTEXT ( 'NONE', 'WORKASPACE' ) );
#245 = CARTESIAN_POINT ( 'NONE',  ( 2.500000000000000000, 0.000000000000000000, 49.00000000000000000 ) ) ;
#246 = ORIENTED_EDGE ( 'NONE', *, *, #302, .T. ) ;
#247 = CARTESIAN_POINT ( 'NONE',  ( 0.000000000000000000, 0.000000000000000000, 0.000000000000000000 ) ) ;
#248 = CARTESIAN_POINT ( 'NONE',  ( 0.000000000000000000, 0.000000000000000000, 49.00000000000000000 ) ) ;
#249 = DIRECTION ( 'NONE',  ( 0.000000000000000000, 0.000000000000000000, 1.000000000000000000 ) ) ;
#250 = PRODUCT_DEFINITION_SHAPE ( 'NONE', 'NONE',  #240 ) ;
#251 = CIRCLE ( 'NONE', #170, 2.500000000000000000 ) ;
#252 = CC_DESIGN_SECURITY_CLASSIFICATION ( #309, ( #40 ) ) ;
#253 = DIRECTION ( 'NONE',  ( 0.000000000000000000, 0.000000000000000000, -1.000000000000000000 ) ) ;
#254 = ORIENTED_EDGE ( 'NONE', *, *, #348, .T. ) ;
#255 = APPROVAL ( #158, 'UNSPECIFIED' ) ;
#256 = ORIENTED_EDGE ( 'NONE', *, *, #201, .F. ) ;
#257 = VERTEX_POINT ( 'NONE', #245 ) ;
#258 = AXIS2_PLACEMENT_3D ( 'NONE', #248, #135, #273 ) ;
#259 = ORIENTED_EDGE ( 'NONE', *, *, #302, .F. ) ;
#260 = PLANE ( 'NONE',  #5 ) ;
#261 = VERTEX_POINT ( 'NONE', #21 ) ;
#262 = APPROVAL_STATUS ( 'not_yet_approved' ) ;
#263 = ADVANCED_FACE ( 'NONE', ( #136 ), #178, .T. ) ;
#264 = CIRCLE ( 'NONE', #139, 10.76794919243111970 ) ;
#265 = PERSON_AND_ORGANIZATION_ROLE ( 'creator' ) ;
#266 = PERSON_AND_ORGANIZATION ( #81, #13 ) ;
#267 = ORIENTED_EDGE ( 'NONE', *, *, #312, .T. ) ;
#268 = PERSON_AND_ORGANIZATION_ROLE ( 'design_supplier' ) ;
#269 = VECTOR ( 'NONE', #157, 1000.000000000000000 ) ;
#270 = VECTOR ( 'NONE', #284, 1000.000000000000000 ) ;
#271 = DIRECTION ( 'NONE',  ( 0.000000000000000000, 0.000000000000000000, 1.000000000000000000 ) ) ;
#272 = DIRECTION ( 'NONE',  ( 1.000000000000000000, 0.000000000000000000, 0.000000000000000000 ) ) ;
#273 = DIRECTION ( 'NONE',  ( 1.000000000000000000, 0.000000000000000000, 0.000000000000000000 ) ) ;
#274 = APPROVAL_PERSON_ORGANIZATION ( #11, #255, #34 ) ;
#275 = DIRECTION ( 'NONE',  ( 0.000000000000000000, 0.000000000000000000, 1.000000000000000000 ) ) ;
#276 = CARTESIAN_POINT ( 'NONE',  ( 2.500000000000000000, 0.000000000000000000, 39.00000000000000000 ) ) ;
#277 = CARTESIAN_POINT ( 'NONE',  ( 0.000000000000000000, 0.000000000000000000, 50.00000000000000000 ) ) ;
#278 = DIRECTION ( 'NONE',  ( 0.000000000000000000, 0.000000000000000000, 1.000000000000000000 ) ) ;
#279 = EDGE_LOOP ( 'NONE', ( #86, #256, #254, #325 ) ) ;
#280 = DIRECTION ( 'NONE',  ( 1.000000000000000000, 0.000000000000000000, 0.000000000000000000 ) ) ;
#281 = CARTESIAN_POINT ( 'NONE',  ( -12.50000000000000000, 1.530808498934191521E-15, 44.00000000000000000 ) ) ;
#282 = AXIS2_PLACEMENT_3D ( 'NONE', #247, #275, #188 ) ;
#283 = ORIENTED_EDGE ( 'NONE', *, *, #226, .T. ) ;
#284 = DIRECTION ( 'NONE',  ( -0.4999999999999998890, 6.123233995736764803E-17, 0.8660254037844387076 ) ) ;
#285 = LINE ( 'NONE', #341, #269 ) ;
#286 = CARTESIAN_POINT ( 'NONE',  ( 0.000000000000000000, 0.000000000000000000, 49.00000000000000000 ) ) ;
#287 = AXIS2_PLACEMENT_3D ( 'NONE', #277, #249, #272 ) ;
#288 = DIRECTION ( 'NONE',  ( 0.4999999999999998890, 0.000000000000000000, 0.8660254037844387076 ) ) ;
#289 = DATE_AND_TIME ( #154, #238 ) ;
#290 = DATE_AND_TIME ( #214, #6 ) ;
#291 = DIRECTION ( 'NONE',  ( 1.000000000000000000, 0.000000000000000000, 0.000000000000000000 ) ) ;
#292 = CIRCLE ( 'NONE', #228, 12.50000000000000000 ) ;
#293 = CC_DESIGN_APPROVAL ( #39, ( #309 ) ) ;
#294 = CALENDAR_DATE ( 2021, 25, 10 ) ;
#295 = DATE_AND_TIME ( #294, #103 ) ;
#296 = PLANE ( 'NONE',  #200 ) ;
#297 = COORDINATED_UNIVERSAL_TIME_OFFSET ( 9, 0, .AHEAD. ) ;
#298 = DIRECTION ( 'NONE',  ( 1.000000000000000000, 0.000000000000000000, 0.000000000000000000 ) ) ;
#299 = LOCAL_TIME ( 8, 59, 26.00000000000000000, #181 ) ;
#300 = DIRECTION ( 'NONE',  ( 0.5000000000000003331, 6.123233995736769734E-17, -0.8660254037844383745 ) ) ;
#301 = CARTESIAN_POINT ( 'NONE',  ( 12.50000000000000000, 0.000000000000000000, 50.00000000000000000 ) ) ;
#302 = EDGE_CURVE ( 'NONE', #174, #334, #169, .T. ) ;
#303 = DIRECTION ( 'NONE',  ( 0.000000000000000000, 0.000000000000000000, 1.000000000000000000 ) ) ;
#304 = AXIS2_PLACEMENT_3D ( 'NONE', #320, #328, #97 ) ;
#305 = DIRECTION ( 'NONE',  ( 0.000000000000000000, 0.000000000000000000, 1.000000000000000000 ) ) ;
#306 = CARTESIAN_POINT ( 'NONE',  ( -12.50000000000000000, 1.530808498934191521E-15, 3.000000000000000000 ) ) ;
#307 = EDGE_LOOP ( 'NONE', ( #82, #121, #227, #31 ) ) ;
#308 = CIRCLE ( 'NONE', #56, 2.500000000000000000 ) ;
#309 = SECURITY_CLASSIFICATION ( '', '', #122 ) ;
#310 = ORIENTED_EDGE ( 'NONE', *, *, #193, .T. ) ;
#311 = VERTEX_POINT ( 'NONE', #318 ) ;
#312 = EDGE_CURVE ( 'NONE', #30, #69, #317, .T. ) ;
#313 = ADVANCED_FACE ( 'NONE', ( #96 ), #213, .T. ) ;
#314 = LINE ( 'NONE', #57, #159 ) ;
#315 = ORIENTED_EDGE ( 'NONE', *, *, #312, .F. ) ;
#316 = PERSON_AND_ORGANIZATION_ROLE ( 'design_owner' ) ;
#317 = CIRCLE ( 'NONE', #235, 9.613248654051849584 ) ;
#318 = CARTESIAN_POINT ( 'NONE',  ( -2.500000000000000000, 3.061616997868383141E-16, 39.00000000000000000 ) ) ;
#319 = PERSON_AND_ORGANIZATION ( #81, #13 ) ;
#320 = CARTESIAN_POINT ( 'NONE',  ( 0.000000000000000000, 0.000000000000000000, 50.00000000000000000 ) ) ;
#321 = LINE ( 'NONE', #301, #212 ) ;
#322 = ADVANCED_FACE ( 'NONE', ( #48 ), #163, .T. ) ;
#323 = DIRECTION ( 'NONE',  ( 1.000000000000000000, 0.000000000000000000, 0.000000000000000000 ) ) ;
#324 = CIRCLE ( 'NONE', #73, 10.76794919243111970 ) ;
#325 = ORIENTED_EDGE ( 'NONE', *, *, #77, .T. ) ;
#326 = CARTESIAN_POINT ( 'NONE',  ( 0.000000000000000000, 0.000000000000000000, 3.000000000000000000 ) ) ;
#327 = CARTESIAN_POINT ( 'NONE',  ( 0.000000000000000000, 0.000000000000000000, 44.00000000000000000 ) ) ;
#328 = DIRECTION ( 'NONE',  ( 0.000000000000000000, 0.000000000000000000, 1.000000000000000000 ) ) ;
#329 = CARTESIAN_POINT ( 'NONE',  ( -12.50000000000000000, 0.000000000000000000, 44.00000000000000000 ) ) ;
#330 = PRODUCT_RELATED_PRODUCT_CATEGORY ( 'detail', '', ( #54 ) ) ;
#331 =( NAMED_UNIT ( * ) SI_UNIT ( $, .STERADIAN. ) SOLID_ANGLE_UNIT ( ) );
#332 = DIRECTION ( 'NONE',  ( 0.000000000000000000, 0.000000000000000000, 1.000000000000000000 ) ) ;
#333 = ORIENTED_EDGE ( 'NONE', *, *, #68, .T. ) ;
#334 = VERTEX_POINT ( 'NONE', #237 ) ;
#335 = DIRECTION ( 'NONE',  ( 0.000000000000000000, 0.000000000000000000, 1.000000000000000000 ) ) ;
#336 = FACE_OUTER_BOUND ( 'NONE', #350, .T. ) ;
#337 = CC_DESIGN_PERSON_AND_ORGANIZATION_ASSIGNMENT ( #266, #265, ( #40 ) ) ;
#338 = EDGE_LOOP ( 'NONE', ( #224, #142 ) ) ;
#339 = DIRECTION ( 'NONE',  ( 0.000000000000000000, 0.000000000000000000, 1.000000000000000000 ) ) ;
#340 = ADVANCED_BREP_SHAPE_REPRESENTATION ( 'bj720-25001', ( #209, #47 ), #244 ) ;
#341 = CARTESIAN_POINT ( 'NONE',  ( -12.50000000000000000, 1.530808498934191521E-15, 50.00000000000000000 ) ) ;
#342 = APPROVAL_DATE_TIME ( #151, #175 ) ;
#343 = APPROVAL_STATUS ( 'not_yet_approved' ) ;
#344 = APPROVAL_PERSON_ORGANIZATION ( #93, #39, #62 ) ;
#345 = PERSON_AND_ORGANIZATION ( #81, #13 ) ;
#346 = CALENDAR_DATE ( 2021, 25, 10 ) ;
#347 = DIRECTION ( 'NONE',  ( 1.000000000000000000, 0.000000000000000000, 0.000000000000000000 ) ) ;
#348 = EDGE_CURVE ( 'NONE', #231, #257, #150, .T. ) ;
#349 = FACE_OUTER_BOUND ( 'NONE', #279, .T. ) ;
#350 = EDGE_LOOP ( 'NONE', ( #141, #9 ) ) ;
#351 = CARTESIAN_POINT ( 'NONE',  ( 0.000000000000000000, 0.000000000000000000, 44.00000000000000000 ) ) ;
#352 = DIRECTION ( 'NONE',  ( 1.000000000000000000, 0.000000000000000000, 0.000000000000000000 ) ) ;
#353 = LOCAL_TIME ( 8, 59, 26.00000000000000000, #297 ) ;
#354 = DIRECTION ( 'NONE',  ( 1.000000000000000000, 0.000000000000000000, 0.000000000000000000 ) ) ;
#355 = FACE_OUTER_BOUND ( 'NONE', #51, .T. ) ;
ENDSEC;
END-ISO-10303-21;
