ISO-10303-21;
HEADER;
FILE_DESCRIPTION (( 'STEP AP203' ),
    '1' );
FILE_NAME ('bj400-12075.STEP',
    '2021-10-24T23:52:09',
    ( '' ),
    ( '' ),
    'SwSTEP 2.0',
    'SolidWorks 2020',
    '' );
FILE_SCHEMA (( 'CONFIG_CONTROL_DESIGN' ));
ENDSEC;

DATA;
#1 = CARTESIAN_POINT ( 'NONE',  ( 0.000000000000000000, 0.000000000000000000, 75.00000000000000000 ) ) ;
#2 = DIRECTION ( 'NONE',  ( 0.000000000000000000, 0.000000000000000000, 1.000000000000000000 ) ) ;
#3 = ORIENTED_EDGE ( 'NONE', *, *, #62, .F. ) ;
#4 = APPROVAL_ROLE ( '' ) ;
#5 = CARTESIAN_POINT ( 'NONE',  ( 0.000000000000000000, 0.000000000000000000, 12.00000000000000000 ) ) ;
#6 = LINE ( 'NONE', #113, #13 ) ;
#7 = VERTEX_POINT ( 'NONE', #213 ) ;
#8 = CARTESIAN_POINT ( 'NONE',  ( 10.00000000000000000, 0.000000000000000000, 12.00000000000000000 ) ) ;
#9 = SHAPE_DEFINITION_REPRESENTATION ( #142, #228 ) ;
#10 = CARTESIAN_POINT ( 'NONE',  ( 0.000000000000000000, 0.000000000000000000, 40.00000000000000000 ) ) ;
#11 = CALENDAR_DATE ( 2021, 25, 10 ) ;
#12 = EDGE_LOOP ( 'NONE', ( #170, #245, #116, #247 ) ) ;
#13 = VECTOR ( 'NONE', #85, 1000.000000000000000 ) ;
#14 = PERSON_AND_ORGANIZATION ( #36, #134 ) ;
#15 = CARTESIAN_POINT ( 'NONE',  ( -6.000000000000000000, 7.347880794884119736E-16, 12.00000000000000000 ) ) ;
#16 = APPROVAL_STATUS ( 'not_yet_approved' ) ;
#17 = CARTESIAN_POINT ( 'NONE',  ( -10.00000000000000000, 1.224646799147353256E-15, 75.00000000000000000 ) ) ;
#18 = ORIENTED_EDGE ( 'NONE', *, *, #328, .T. ) ;
#19 = AXIS2_PLACEMENT_3D ( 'NONE', #82, #136, #31 ) ;
#20 = CALENDAR_DATE ( 2021, 25, 10 ) ;
#21 = DIRECTION ( 'NONE',  ( 1.000000000000000000, 0.000000000000000000, 0.000000000000000000 ) ) ;
#22 = ADVANCED_FACE ( 'NONE', ( #23 ), #225, .T. ) ;
#23 = FACE_OUTER_BOUND ( 'NONE', #306, .T. ) ;
#24 = VERTEX_POINT ( 'NONE', #152 ) ;
#25 = DIRECTION ( 'NONE',  ( -1.000000000000000000, 0.000000000000000000, 0.000000000000000000 ) ) ;
#26 = PLANE ( 'NONE',  #268 ) ;
#27 = VERTEX_POINT ( 'NONE', #98 ) ;
#28 = EDGE_CURVE ( 'NONE', #7, #314, #323, .T. ) ;
#29 = ORIENTED_EDGE ( 'NONE', *, *, #302, .T. ) ;
#30 = AXIS2_PLACEMENT_3D ( 'NONE', #127, #128, #125 ) ;
#31 = DIRECTION ( 'NONE',  ( 1.000000000000000000, 0.000000000000000000, 0.000000000000000000 ) ) ;
#32 = AXIS2_PLACEMENT_3D ( 'NONE', #1, #266, #309 ) ;
#33 = CARTESIAN_POINT ( 'NONE',  ( 0.000000000000000000, 0.000000000000000000, 40.00000000000000000 ) ) ;
#34 = CARTESIAN_POINT ( 'NONE',  ( 0.000000000000000000, 0.000000000000000000, 75.00000000000000000 ) ) ;
#35 = APPROVAL_PERSON_ORGANIZATION ( #224, #183, #173 ) ;
#36 = PERSON ( 'UNSPECIFIED', 'UNSPECIFIED', 'UNSPECIFIED', ('UNSPECIFIED'), ('UNSPECIFIED'), ('UNSPECIFIED') ) ;
#37 = LOCAL_TIME ( 8, 52, 9.000000000000000000, #95 ) ;
#38 = DIRECTION ( 'NONE',  ( 0.000000000000000000, 0.000000000000000000, 1.000000000000000000 ) ) ;
#39 = MANIFOLD_SOLID_BREP ( 'Imported1', #239 ) ;
#40 = EDGE_LOOP ( 'NONE', ( #87, #93, #188, #107 ) ) ;
#41 = CC_DESIGN_PERSON_AND_ORGANIZATION_ASSIGNMENT ( #192, #277, ( #110 ) ) ;
#42 = SECURITY_CLASSIFICATION_LEVEL ( 'unclassified' ) ;
#43 = CARTESIAN_POINT ( 'NONE',  ( 0.000000000000000000, 0.000000000000000000, 0.000000000000000000 ) ) ;
#44 = EDGE_CURVE ( 'NONE', #65, #7, #216, .T. ) ;
#45 = VECTOR ( 'NONE', #2, 1000.000000000000000 ) ;
#46 = DIRECTION ( 'NONE',  ( 1.000000000000000000, 0.000000000000000000, 0.000000000000000000 ) ) ;
#47 = DATE_AND_TIME ( #126, #313 ) ;
#48 = DIRECTION ( 'NONE',  ( 1.000000000000000000, 0.000000000000000000, 0.000000000000000000 ) ) ;
#49 = APPROVAL_ROLE ( '' ) ;
#50 = CARTESIAN_POINT ( 'NONE',  ( 0.000000000000000000, 0.000000000000000000, 12.00000000000000000 ) ) ;
#51 = AXIS2_PLACEMENT_3D ( 'NONE', #5, #80, #135 ) ;
#52 = PERSON_AND_ORGANIZATION_ROLE ( 'design_supplier' ) ;
#53 = CARTESIAN_POINT ( 'NONE',  ( -20.00000000000000000, 2.449293598294706513E-15, 0.000000000000000000 ) ) ;
#54 = FACE_OUTER_BOUND ( 'NONE', #211, .T. ) ;
#55 = CIRCLE ( 'NONE', #109, 20.00000000000000000 ) ;
#56 = DIRECTION ( 'NONE',  ( 1.000000000000000000, 0.000000000000000000, 0.000000000000000000 ) ) ;
#57 = ORIENTED_EDGE ( 'NONE', *, *, #196, .F. ) ;
#58 = CYLINDRICAL_SURFACE ( 'NONE', #217, 20.00000000000000000 ) ;
#59 = APPROVAL_STATUS ( 'not_yet_approved' ) ;
#60 = CC_DESIGN_DATE_AND_TIME_ASSIGNMENT ( #130, #219, ( #110 ) ) ;
#61 = CARTESIAN_POINT ( 'NONE',  ( 0.000000000000000000, 0.000000000000000000, 12.00000000000000000 ) ) ;
#62 = EDGE_CURVE ( 'NONE', #149, #164, #176, .T. ) ;
#63 = ORIENTED_EDGE ( 'NONE', *, *, #204, .F. ) ;
#64 = CIRCLE ( 'NONE', #146, 10.00000000000000000 ) ;
#65 = VERTEX_POINT ( 'NONE', #77 ) ;
#66 = ADVANCED_FACE ( 'NONE', ( #278 ), #253, .F. ) ;
#67 = VERTEX_POINT ( 'NONE', #17 ) ;
#68 = EDGE_CURVE ( 'NONE', #185, #27, #325, .T. ) ;
#69 = AXIS2_PLACEMENT_3D ( 'NONE', #283, #155, #132 ) ;
#70 = FACE_OUTER_BOUND ( 'NONE', #12, .T. ) ;
#71 = ORIENTED_EDGE ( 'NONE', *, *, #270, .F. ) ;
#72 = DIRECTION ( 'NONE',  ( 0.000000000000000000, 0.000000000000000000, 1.000000000000000000 ) ) ;
#73 = PERSON_AND_ORGANIZATION_ROLE ( 'design_owner' ) ;
#74 = CARTESIAN_POINT ( 'NONE',  ( 20.00000000000000000, 0.000000000000000000, 0.000000000000000000 ) ) ;
#75 = CC_DESIGN_APPROVAL ( #215, ( #110 ) ) ;
#76 = DIRECTION ( 'NONE',  ( 0.000000000000000000, 0.000000000000000000, 1.000000000000000000 ) ) ;
#77 = CARTESIAN_POINT ( 'NONE',  ( -10.00000000000000000, 1.224646799147353256E-15, 12.00000000000000000 ) ) ;
#78 = PERSON_AND_ORGANIZATION ( #36, #134 ) ;
#79 = AXIS2_PLACEMENT_3D ( 'NONE', #43, #160, #287 ) ;
#80 = DIRECTION ( 'NONE',  ( 0.000000000000000000, 0.000000000000000000, 1.000000000000000000 ) ) ;
#81 = LINE ( 'NONE', #115, #94 ) ;
#82 = CARTESIAN_POINT ( 'NONE',  ( 0.000000000000000000, 0.000000000000000000, 40.00000000000000000 ) ) ;
#83 = ORIENTED_EDGE ( 'NONE', *, *, #292, .F. ) ;
#84 = CC_DESIGN_APPROVAL ( #183, ( #186 ) ) ;
#85 = DIRECTION ( 'NONE',  ( 0.000000000000000000, 0.000000000000000000, 1.000000000000000000 ) ) ;
#86 = CC_DESIGN_PERSON_AND_ORGANIZATION_ASSIGNMENT ( #293, #274, ( #186 ) ) ;
#87 = ORIENTED_EDGE ( 'NONE', *, *, #44, .F. ) ;
#88 = DIRECTION ( 'NONE',  ( 0.000000000000000000, 0.000000000000000000, 1.000000000000000000 ) ) ;
#89 = AXIS2_PLACEMENT_3D ( 'NONE', #258, #199, #21 ) ;
#90 = EDGE_LOOP ( 'NONE', ( #317, #312 ) ) ;
#91 = DIRECTION ( 'NONE',  ( 1.000000000000000000, 0.000000000000000000, 0.000000000000000000 ) ) ;
#92 = ADVANCED_FACE ( 'NONE', ( #322, #197 ), #193, .F. ) ;
#93 = ORIENTED_EDGE ( 'NONE', *, *, #206, .T. ) ;
#94 = VECTOR ( 'NONE', #259, 1000.000000000000000 ) ;
#95 = COORDINATED_UNIVERSAL_TIME_OFFSET ( 9, 0, .AHEAD. ) ;
#96 = ORIENTED_EDGE ( 'NONE', *, *, #204, .T. ) ;
#97 = PERSON_AND_ORGANIZATION_ROLE ( 'classification_officer' ) ;
#98 = CARTESIAN_POINT ( 'NONE',  ( 6.000000000000000000, 0.000000000000000000, 12.00000000000000000 ) ) ;
#99 = DIRECTION ( 'NONE',  ( 1.000000000000000000, 0.000000000000000000, 0.000000000000000000 ) ) ;
#100 = ORIENTED_EDGE ( 'NONE', *, *, #280, .F. ) ;
#101 = CIRCLE ( 'NONE', #32, 10.00000000000000000 ) ;
#102 = CARTESIAN_POINT ( 'NONE',  ( 6.000000000000000000, 0.000000000000000000, 40.00000000000000000 ) ) ;
#103 = COORDINATED_UNIVERSAL_TIME_OFFSET ( 9, 0, .AHEAD. ) ;
#104 = DIRECTION ( 'NONE',  ( 0.000000000000000000, 0.000000000000000000, 1.000000000000000000 ) ) ;
#105 = DIRECTION ( 'NONE',  ( 0.000000000000000000, 0.000000000000000000, 1.000000000000000000 ) ) ;
#106 = DIRECTION ( 'NONE',  ( 0.000000000000000000, 0.000000000000000000, -1.000000000000000000 ) ) ;
#107 = ORIENTED_EDGE ( 'NONE', *, *, #28, .F. ) ;
#108 = PLANE ( 'NONE',  #153 ) ;
#109 = AXIS2_PLACEMENT_3D ( 'NONE', #131, #294, #329 ) ;
#110 = PRODUCT_DEFINITION ( 'UNKNOWN', '', #186, #139 ) ;
#111 = COORDINATED_UNIVERSAL_TIME_OFFSET ( 9, 0, .AHEAD. ) ;
#112 = AXIS2_PLACEMENT_3D ( 'NONE', #210, #38, #248 ) ;
#113 = CARTESIAN_POINT ( 'NONE',  ( 20.00000000000000000, 0.000000000000000000, 40.00000000000000000 ) ) ;
#114 = DATE_AND_TIME ( #133, #319 ) ;
#115 = CARTESIAN_POINT ( 'NONE',  ( -10.00000000000000000, 1.224646799147353256E-15, 40.00000000000000000 ) ) ;
#116 = ORIENTED_EDGE ( 'NONE', *, *, #196, .T. ) ;
#117 = ORIENTED_EDGE ( 'NONE', *, *, #235, .F. ) ;
#118 = DIRECTION ( 'NONE',  ( 1.000000000000000000, 0.000000000000000000, 0.000000000000000000 ) ) ;
#119 = VERTEX_POINT ( 'NONE', #53 ) ;
#120 = MECHANICAL_CONTEXT ( 'NONE', #143, 'mechanical' ) ;
#121 = EDGE_LOOP ( 'NONE', ( #221, #166 ) ) ;
#122 = AXIS2_PLACEMENT_3D ( 'NONE', #150, #174, #279 ) ;
#123 = AXIS2_PLACEMENT_3D ( 'NONE', #10, #273, #91 ) ;
#124 = APPLICATION_CONTEXT ( 'configuration controlled 3d designs of mechanical parts and assemblies' ) ;
#125 = DIRECTION ( 'NONE',  ( 1.000000000000000000, 0.000000000000000000, 0.000000000000000000 ) ) ;
#126 = CALENDAR_DATE ( 2021, 25, 10 ) ;
#127 = CARTESIAN_POINT ( 'NONE',  ( 0.000000000000000000, 0.000000000000000000, 40.00000000000000000 ) ) ;
#128 = DIRECTION ( 'NONE',  ( 0.000000000000000000, 0.000000000000000000, 1.000000000000000000 ) ) ;
#129 = AXIS2_PLACEMENT_3D ( 'NONE', #289, #271, #212 ) ;
#130 = DATE_AND_TIME ( #20, #37 ) ;
#131 = CARTESIAN_POINT ( 'NONE',  ( 0.000000000000000000, 0.000000000000000000, 75.00000000000000000 ) ) ;
#132 = DIRECTION ( 'NONE',  ( 1.000000000000000000, 0.000000000000000000, 0.000000000000000000 ) ) ;
#133 = CALENDAR_DATE ( 2021, 25, 10 ) ;
#134 = ORGANIZATION ( 'UNSPECIFIED', 'UNSPECIFIED', '' ) ;
#135 = DIRECTION ( 'NONE',  ( 1.000000000000000000, 0.000000000000000000, 0.000000000000000000 ) ) ;
#136 = DIRECTION ( 'NONE',  ( 0.000000000000000000, 0.000000000000000000, 1.000000000000000000 ) ) ;
#137 = ORIENTED_EDGE ( 'NONE', *, *, #270, .T. ) ;
#138 = EDGE_LOOP ( 'NONE', ( #3, #324, #229, #137 ) ) ;
#139 = DESIGN_CONTEXT ( 'detailed design', #124, 'design' ) ;
#140 = AXIS2_PLACEMENT_3D ( 'NONE', #194, #76, #275 ) ;
#141 = ORIENTED_EDGE ( 'NONE', *, *, #280, .T. ) ;
#142 = PRODUCT_DEFINITION_SHAPE ( 'NONE', 'NONE',  #110 ) ;
#143 = APPLICATION_CONTEXT ( 'configuration controlled 3d designs of mechanical parts and assemblies' ) ;
#144 =( NAMED_UNIT ( * ) PLANE_ANGLE_UNIT ( ) SI_UNIT ( $, .RADIAN. ) );
#145 = VERTEX_POINT ( 'NONE', #74 ) ;
#146 = AXIS2_PLACEMENT_3D ( 'NONE', #34, #310, #290 ) ;
#147 = VERTEX_POINT ( 'NONE', #200 ) ;
#148 =( NAMED_UNIT ( * ) SI_UNIT ( $, .STERADIAN. ) SOLID_ANGLE_UNIT ( ) );
#149 = VERTEX_POINT ( 'NONE', #226 ) ;
#150 = CARTESIAN_POINT ( 'NONE',  ( 6.000000000000000000, 0.000000000000000000, 0.000000000000000000 ) ) ;
#151 = DIRECTION ( 'NONE',  ( 0.000000000000000000, 0.000000000000000000, 1.000000000000000000 ) ) ;
#152 = CARTESIAN_POINT ( 'NONE',  ( 20.00000000000000000, 0.000000000000000000, 75.00000000000000000 ) ) ;
#153 = AXIS2_PLACEMENT_3D ( 'NONE', #8, #106, #157 ) ;
#154 = DIRECTION ( 'NONE',  ( 0.000000000000000000, 0.000000000000000000, 1.000000000000000000 ) ) ;
#155 = DIRECTION ( 'NONE',  ( 0.000000000000000000, 0.000000000000000000, 1.000000000000000000 ) ) ;
#156 = CIRCLE ( 'NONE', #251, 20.00000000000000000 ) ;
#157 = DIRECTION ( 'NONE',  ( -1.000000000000000000, 0.000000000000000000, 0.000000000000000000 ) ) ;
#158 = ORIENTED_EDGE ( 'NONE', *, *, #177, .F. ) ;
#159 = ADVANCED_FACE ( 'NONE', ( #299 ), #252, .F. ) ;
#160 = DIRECTION ( 'NONE',  ( 0.000000000000000000, 0.000000000000000000, 1.000000000000000000 ) ) ;
#161 = VECTOR ( 'NONE', #104, 1000.000000000000000 ) ;
#162 = CIRCLE ( 'NONE', #140, 6.000000000000000000 ) ;
#163 = CARTESIAN_POINT ( 'NONE',  ( 0.000000000000000000, 0.000000000000000000, 0.000000000000000000 ) ) ;
#164 = VERTEX_POINT ( 'NONE', #15 ) ;
#165 = APPLICATION_PROTOCOL_DEFINITION ( 'international standard', 'config_control_design', 1994, #143 ) ;
#166 = ORIENTED_EDGE ( 'NONE', *, *, #44, .T. ) ;
#167 = AXIS2_PLACEMENT_3D ( 'NONE', #276, #154, #48 ) ;
#168 = SECURITY_CLASSIFICATION ( '', '', #42 ) ;
#169 = DIRECTION ( 'NONE',  ( 1.000000000000000000, 0.000000000000000000, 0.000000000000000000 ) ) ;
#170 = ORIENTED_EDGE ( 'NONE', *, *, #214, .F. ) ;
#171 = CALENDAR_DATE ( 2021, 25, 10 ) ;
#172 = CARTESIAN_POINT ( 'NONE',  ( 6.000000000000000000, 0.000000000000000000, 0.000000000000000000 ) ) ;
#173 = APPROVAL_ROLE ( '' ) ;
#174 = DIRECTION ( 'NONE',  ( 0.000000000000000000, 0.000000000000000000, 1.000000000000000000 ) ) ;
#175 = DATE_AND_TIME ( #11, #207 ) ;
#176 = LINE ( 'NONE', #181, #161 ) ;
#177 = EDGE_CURVE ( 'NONE', #147, #24, #55, .T. ) ;
#178 = PERSON_AND_ORGANIZATION ( #36, #134 ) ;
#179 = VECTOR ( 'NONE', #105, 1000.000000000000000 ) ;
#180 = EDGE_CURVE ( 'NONE', #185, #149, #237, .T. ) ;
#181 = CARTESIAN_POINT ( 'NONE',  ( -6.000000000000000000, 7.347880794884119736E-16, 40.00000000000000000 ) ) ;
#182 = CIRCLE ( 'NONE', #51, 6.000000000000000000 ) ;
#183 = APPROVAL ( #327, 'UNSPECIFIED' ) ;
#184 = DIRECTION ( 'NONE',  ( 0.000000000000000000, 0.000000000000000000, 1.000000000000000000 ) ) ;
#185 = VERTEX_POINT ( 'NONE', #172 ) ;
#186 = PRODUCT_DEFINITION_FORMATION_WITH_SPECIFIED_SOURCE ( 'ANY', '', #232, .NOT_KNOWN. ) ;
#187 = CIRCLE ( 'NONE', #112, 20.00000000000000000 ) ;
#188 = ORIENTED_EDGE ( 'NONE', *, *, #326, .T. ) ;
#189 = FACE_OUTER_BOUND ( 'NONE', #272, .T. ) ;
#190 = CYLINDRICAL_SURFACE ( 'NONE', #123, 6.000000000000000000 ) ;
#191 = APPROVAL_PERSON_ORGANIZATION ( #285, #254, #4 ) ;
#192 = PERSON_AND_ORGANIZATION ( #36, #134 ) ;
#193 = PLANE ( 'NONE',  #122 ) ;
#194 = CARTESIAN_POINT ( 'NONE',  ( 0.000000000000000000, 0.000000000000000000, 12.00000000000000000 ) ) ;
#195 = APPROVAL_PERSON_ORGANIZATION ( #78, #215, #49 ) ;
#196 = EDGE_CURVE ( 'NONE', #164, #27, #162, .T. ) ;
#197 = FACE_BOUND ( 'NONE', #308, .T. ) ;
#198 = DATE_AND_TIME ( #171, #222 ) ;
#199 = DIRECTION ( 'NONE',  ( 0.000000000000000000, 0.000000000000000000, 1.000000000000000000 ) ) ;
#200 = CARTESIAN_POINT ( 'NONE',  ( -20.00000000000000000, 2.449293598294706513E-15, 75.00000000000000000 ) ) ;
#201 = ORIENTED_EDGE ( 'NONE', *, *, #180, .T. ) ;
#202 = APPROVAL_DATE_TIME ( #114, #254 ) ;
#203 = FACE_OUTER_BOUND ( 'NONE', #311, .T. ) ;
#204 = EDGE_CURVE ( 'NONE', #145, #119, #304, .T. ) ;
#205 = LINE ( 'NONE', #233, #45 ) ;
#206 = EDGE_CURVE ( 'NONE', #65, #67, #81, .T. ) ;
#207 = LOCAL_TIME ( 8, 52, 9.000000000000000000, #111 ) ;
#208 = ORIENTED_EDGE ( 'NONE', *, *, #177, .T. ) ;
#209 = ADVANCED_FACE ( 'NONE', ( #189 ), #307, .F. ) ;
#210 = CARTESIAN_POINT ( 'NONE',  ( 0.000000000000000000, 0.000000000000000000, 75.00000000000000000 ) ) ;
#211 = EDGE_LOOP ( 'NONE', ( #29, #208 ) ) ;
#212 = DIRECTION ( 'NONE',  ( 1.000000000000000000, 0.000000000000000000, 0.000000000000000000 ) ) ;
#213 = CARTESIAN_POINT ( 'NONE',  ( 10.00000000000000000, 0.000000000000000000, 12.00000000000000000 ) ) ;
#214 = EDGE_CURVE ( 'NONE', #149, #185, #257, .T. ) ;
#215 = APPROVAL ( #16, 'UNSPECIFIED' ) ;
#216 = CIRCLE ( 'NONE', #267, 10.00000000000000000 ) ;
#217 = AXIS2_PLACEMENT_3D ( 'NONE', #33, #243, #169 ) ;
#218 = ORIENTED_EDGE ( 'NONE', *, *, #328, .F. ) ;
#219 = DATE_TIME_ROLE ( 'creation_date' ) ;
#220 = CARTESIAN_POINT ( 'NONE',  ( 0.000000000000000000, 0.000000000000000000, 0.000000000000000000 ) ) ;
#221 = ORIENTED_EDGE ( 'NONE', *, *, #235, .T. ) ;
#222 = LOCAL_TIME ( 8, 52, 9.000000000000000000, #103 ) ;
#223 = CC_DESIGN_PERSON_AND_ORGANIZATION_ASSIGNMENT ( #296, #73, ( #232 ) ) ;
#224 = PERSON_AND_ORGANIZATION ( #36, #134 ) ;
#225 = CYLINDRICAL_SURFACE ( 'NONE', #30, 20.00000000000000000 ) ;
#226 = CARTESIAN_POINT ( 'NONE',  ( -6.000000000000000000, 7.347880794884119736E-16, 0.000000000000000000 ) ) ;
#227 = CC_DESIGN_PERSON_AND_ORGANIZATION_ASSIGNMENT ( #178, #52, ( #186 ) ) ;
#228 = ADVANCED_BREP_SHAPE_REPRESENTATION ( 'bj400-12075', ( #39, #129 ), #230 ) ;
#229 = ORIENTED_EDGE ( 'NONE', *, *, #68, .T. ) ;
#230 =( GEOMETRIC_REPRESENTATION_CONTEXT ( 3 ) GLOBAL_UNCERTAINTY_ASSIGNED_CONTEXT ( ( #284 ) ) GLOBAL_UNIT_ASSIGNED_CONTEXT ( ( #316, #144, #148 ) ) REPRESENTATION_CONTEXT ( 'NONE', 'WORKASPACE' ) );
#231 = DATE_TIME_ROLE ( 'classification_date' ) ;
#232 = PRODUCT ( 'bj400-12075', 'bj400-12075', '', ( #120 ) ) ;
#233 = CARTESIAN_POINT ( 'NONE',  ( -20.00000000000000000, 2.449293598294706513E-15, 40.00000000000000000 ) ) ;
#234 = ORIENTED_EDGE ( 'NONE', *, *, #240, .T. ) ;
#235 = EDGE_CURVE ( 'NONE', #7, #65, #291, .T. ) ;
#236 = VECTOR ( 'NONE', #303, 1000.000000000000000 ) ;
#237 = CIRCLE ( 'NONE', #297, 6.000000000000000000 ) ;
#238 = CARTESIAN_POINT ( 'NONE',  ( 20.00000000000000000, 0.000000000000000000, 75.00000000000000000 ) ) ;
#239 = CLOSED_SHELL ( 'NONE', ( #66, #22, #300, #159, #92, #298, #263, #209, #249 ) ) ;
#240 = EDGE_CURVE ( 'NONE', #314, #67, #101, .T. ) ;
#241 = FACE_OUTER_BOUND ( 'NONE', #121, .T. ) ;
#242 = ORIENTED_EDGE ( 'NONE', *, *, #292, .T. ) ;
#243 = DIRECTION ( 'NONE',  ( 0.000000000000000000, 0.000000000000000000, 1.000000000000000000 ) ) ;
#244 = ORIENTED_EDGE ( 'NONE', *, *, #214, .T. ) ;
#245 = ORIENTED_EDGE ( 'NONE', *, *, #62, .T. ) ;
#246 = CC_DESIGN_APPROVAL ( #254, ( #168 ) ) ;
#247 = ORIENTED_EDGE ( 'NONE', *, *, #68, .F. ) ;
#248 = DIRECTION ( 'NONE',  ( 1.000000000000000000, 0.000000000000000000, 0.000000000000000000 ) ) ;
#249 = ADVANCED_FACE ( 'NONE', ( #305, #241 ), #108, .F. ) ;
#250 = ORIENTED_EDGE ( 'NONE', *, *, #206, .F. ) ;
#251 = AXIS2_PLACEMENT_3D ( 'NONE', #163, #88, #118 ) ;
#252 = CYLINDRICAL_SURFACE ( 'NONE', #167, 6.000000000000000000 ) ;
#253 = CYLINDRICAL_SURFACE ( 'NONE', #89, 10.00000000000000000 ) ;
#254 = APPROVAL ( #59, 'UNSPECIFIED' ) ;
#255 = APPROVAL_DATE_TIME ( #47, #215 ) ;
#256 = COORDINATED_UNIVERSAL_TIME_OFFSET ( 9, 0, .AHEAD. ) ;
#257 = CIRCLE ( 'NONE', #69, 6.000000000000000000 ) ;
#258 = CARTESIAN_POINT ( 'NONE',  ( 0.000000000000000000, 0.000000000000000000, 40.00000000000000000 ) ) ;
#259 = DIRECTION ( 'NONE',  ( 0.000000000000000000, 0.000000000000000000, 1.000000000000000000 ) ) ;
#260 = DIRECTION ( 'NONE',  ( 0.000000000000000000, 0.000000000000000000, -1.000000000000000000 ) ) ;
#261 = EDGE_LOOP ( 'NONE', ( #71, #57 ) ) ;
#262 = EDGE_LOOP ( 'NONE', ( #63, #218 ) ) ;
#263 = ADVANCED_FACE ( 'NONE', ( #282, #54 ), #26, .F. ) ;
#264 = ORIENTED_EDGE ( 'NONE', *, *, #28, .T. ) ;
#265 = COORDINATED_UNIVERSAL_TIME_OFFSET ( 9, 0, .AHEAD. ) ;
#266 = DIRECTION ( 'NONE',  ( 0.000000000000000000, 0.000000000000000000, 1.000000000000000000 ) ) ;
#267 = AXIS2_PLACEMENT_3D ( 'NONE', #50, #151, #46 ) ;
#268 = AXIS2_PLACEMENT_3D ( 'NONE', #238, #260, #25 ) ;
#269 = CC_DESIGN_SECURITY_CLASSIFICATION ( #168, ( #186 ) ) ;
#270 = EDGE_CURVE ( 'NONE', #27, #164, #182, .T. ) ;
#271 = DIRECTION ( 'NONE',  ( 0.000000000000000000, 0.000000000000000000, 1.000000000000000000 ) ) ;
#272 = EDGE_LOOP ( 'NONE', ( #250, #117, #264, #234 ) ) ;
#273 = DIRECTION ( 'NONE',  ( 0.000000000000000000, 0.000000000000000000, 1.000000000000000000 ) ) ;
#274 = PERSON_AND_ORGANIZATION_ROLE ( 'creator' ) ;
#275 = DIRECTION ( 'NONE',  ( 1.000000000000000000, 0.000000000000000000, 0.000000000000000000 ) ) ;
#276 = CARTESIAN_POINT ( 'NONE',  ( 0.000000000000000000, 0.000000000000000000, 40.00000000000000000 ) ) ;
#277 = PERSON_AND_ORGANIZATION_ROLE ( 'creator' ) ;
#278 = FACE_OUTER_BOUND ( 'NONE', #40, .T. ) ;
#279 = DIRECTION ( 'NONE',  ( 1.000000000000000000, 0.000000000000000000, 0.000000000000000000 ) ) ;
#280 = EDGE_CURVE ( 'NONE', #119, #147, #205, .T. ) ;
#281 = CARTESIAN_POINT ( 'NONE',  ( 10.00000000000000000, 0.000000000000000000, 40.00000000000000000 ) ) ;
#282 = FACE_BOUND ( 'NONE', #90, .T. ) ;
#283 = CARTESIAN_POINT ( 'NONE',  ( 0.000000000000000000, 0.000000000000000000, 0.000000000000000000 ) ) ;
#284 = UNCERTAINTY_MEASURE_WITH_UNIT (LENGTH_MEASURE( 1.000000000000000082E-05 ), #316, 'distance_accuracy_value', 'NONE');
#285 = PERSON_AND_ORGANIZATION ( #36, #134 ) ;
#286 = CC_DESIGN_DATE_AND_TIME_ASSIGNMENT ( #175, #231, ( #168 ) ) ;
#287 = DIRECTION ( 'NONE',  ( 1.000000000000000000, 0.000000000000000000, 0.000000000000000000 ) ) ;
#288 = CARTESIAN_POINT ( 'NONE',  ( 10.00000000000000000, 0.000000000000000000, 75.00000000000000000 ) ) ;
#289 = CARTESIAN_POINT ( 'NONE',  ( 0.000000000000000000, 0.000000000000000000, 0.000000000000000000 ) ) ;
#290 = DIRECTION ( 'NONE',  ( 1.000000000000000000, 0.000000000000000000, 0.000000000000000000 ) ) ;
#291 = CIRCLE ( 'NONE', #318, 10.00000000000000000 ) ;
#292 = EDGE_CURVE ( 'NONE', #145, #24, #6, .T. ) ;
#293 = PERSON_AND_ORGANIZATION ( #36, #134 ) ;
#294 = DIRECTION ( 'NONE',  ( 0.000000000000000000, 0.000000000000000000, 1.000000000000000000 ) ) ;
#295 = CC_DESIGN_PERSON_AND_ORGANIZATION_ASSIGNMENT ( #14, #97, ( #168 ) ) ;
#296 = PERSON_AND_ORGANIZATION ( #36, #134 ) ;
#297 = AXIS2_PLACEMENT_3D ( 'NONE', #220, #72, #99 ) ;
#298 = ADVANCED_FACE ( 'NONE', ( #203 ), #58, .T. ) ;
#299 = FACE_OUTER_BOUND ( 'NONE', #138, .T. ) ;
#300 = ADVANCED_FACE ( 'NONE', ( #70 ), #190, .F. ) ;
#301 = APPROVAL_DATE_TIME ( #198, #183 ) ;
#302 = EDGE_CURVE ( 'NONE', #24, #147, #187, .T. ) ;
#303 = DIRECTION ( 'NONE',  ( 0.000000000000000000, 0.000000000000000000, 1.000000000000000000 ) ) ;
#304 = CIRCLE ( 'NONE', #79, 20.00000000000000000 ) ;
#305 = FACE_BOUND ( 'NONE', #261, .T. ) ;
#306 = EDGE_LOOP ( 'NONE', ( #96, #141, #321, #83 ) ) ;
#307 = CYLINDRICAL_SURFACE ( 'NONE', #19, 10.00000000000000000 ) ;
#308 = EDGE_LOOP ( 'NONE', ( #201, #244 ) ) ;
#309 = DIRECTION ( 'NONE',  ( 1.000000000000000000, 0.000000000000000000, 0.000000000000000000 ) ) ;
#310 = DIRECTION ( 'NONE',  ( 0.000000000000000000, 0.000000000000000000, 1.000000000000000000 ) ) ;
#311 = EDGE_LOOP ( 'NONE', ( #100, #18, #242, #158 ) ) ;
#312 = ORIENTED_EDGE ( 'NONE', *, *, #326, .F. ) ;
#313 = LOCAL_TIME ( 8, 52, 9.000000000000000000, #256 ) ;
#314 = VERTEX_POINT ( 'NONE', #288 ) ;
#315 = PRODUCT_RELATED_PRODUCT_CATEGORY ( 'detail', '', ( #232 ) ) ;
#316 =( LENGTH_UNIT ( ) NAMED_UNIT ( * ) SI_UNIT ( .MILLI., .METRE. ) );
#317 = ORIENTED_EDGE ( 'NONE', *, *, #240, .F. ) ;
#318 = AXIS2_PLACEMENT_3D ( 'NONE', #61, #184, #56 ) ;
#319 = LOCAL_TIME ( 8, 52, 9.000000000000000000, #265 ) ;
#320 = APPLICATION_PROTOCOL_DEFINITION ( 'international standard', 'config_control_design', 1994, #124 ) ;
#321 = ORIENTED_EDGE ( 'NONE', *, *, #302, .F. ) ;
#322 = FACE_OUTER_BOUND ( 'NONE', #262, .T. ) ;
#323 = LINE ( 'NONE', #281, #179 ) ;
#324 = ORIENTED_EDGE ( 'NONE', *, *, #180, .F. ) ;
#325 = LINE ( 'NONE', #102, #236 ) ;
#326 = EDGE_CURVE ( 'NONE', #67, #314, #64, .T. ) ;
#327 = APPROVAL_STATUS ( 'not_yet_approved' ) ;
#328 = EDGE_CURVE ( 'NONE', #119, #145, #156, .T. ) ;
#329 = DIRECTION ( 'NONE',  ( 1.000000000000000000, 0.000000000000000000, 0.000000000000000000 ) ) ;
ENDSEC;
END-ISO-10303-21;
