ISO-10303-21;
HEADER;
FILE_DESCRIPTION (( 'STEP AP203' ),
    '1' );
FILE_NAME ('bj300-16050.STEP',
    '2021-10-24T23:51:38',
    ( '' ),
    ( '' ),
    'SwSTEP 2.0',
    'SolidWorks 2020',
    '' );
FILE_SCHEMA (( 'CONFIG_CONTROL_DESIGN' ));
ENDSEC;

DATA;
#1 = CIRCLE ( 'NONE', #188, 13.00000000000000000 ) ;
#2 = ADVANCED_FACE ( 'NONE', ( #70 ), #91, .F. ) ;
#3 = ORIENTED_EDGE ( 'NONE', *, *, #146, .T. ) ;
#4 = PERSON_AND_ORGANIZATION ( #218, #236 ) ;
#5 = EDGE_CURVE ( 'NONE', #272, #110, #262, .T. ) ;
#6 = CARTESIAN_POINT ( 'NONE',  ( 25.00000000000000000, 0.000000000000000000, 50.00000000000000000 ) ) ;
#7 = EDGE_CURVE ( 'NONE', #245, #117, #144, .T. ) ;
#8 = ORIENTED_EDGE ( 'NONE', *, *, #214, .F. ) ;
#9 = AXIS2_PLACEMENT_3D ( 'NONE', #101, #301, #76 ) ;
#10 = EDGE_LOOP ( 'NONE', ( #249, #47 ) ) ;
#11 = PERSON_AND_ORGANIZATION_ROLE ( 'creator' ) ;
#12 = EDGE_LOOP ( 'NONE', ( #111, #162 ) ) ;
#13 = AXIS2_PLACEMENT_3D ( 'NONE', #140, #116, #94 ) ;
#14 = EDGE_LOOP ( 'NONE', ( #313, #3, #310, #115 ) ) ;
#15 = AXIS2_PLACEMENT_3D ( 'NONE', #30, #156, #103 ) ;
#16 = DIRECTION ( 'NONE',  ( 0.000000000000000000, 0.000000000000000000, -1.000000000000000000 ) ) ;
#17 = EDGE_CURVE ( 'NONE', #234, #290, #130, .T. ) ;
#18 = DIRECTION ( 'NONE',  ( 1.000000000000000000, 0.000000000000000000, 0.000000000000000000 ) ) ;
#19 =( LENGTH_UNIT ( ) NAMED_UNIT ( * ) SI_UNIT ( .MILLI., .METRE. ) );
#20 = AXIS2_PLACEMENT_3D ( 'NONE', #168, #267, #66 ) ;
#21 = EDGE_LOOP ( 'NONE', ( #39, #216, #38, #8 ) ) ;
#22 = ADVANCED_FACE ( 'NONE', ( #44, #42 ), #139, .F. ) ;
#23 = CARTESIAN_POINT ( 'NONE',  ( 0.000000000000000000, 0.000000000000000000, 15.00000000000000000 ) ) ;
#24 = AXIS2_PLACEMENT_3D ( 'NONE', #28, #176, #257 ) ;
#25 = DIRECTION ( 'NONE',  ( 1.000000000000000000, 0.000000000000000000, 0.000000000000000000 ) ) ;
#26 = CARTESIAN_POINT ( 'NONE',  ( 0.000000000000000000, 0.000000000000000000, 15.00000000000000000 ) ) ;
#27 = DIRECTION ( 'NONE',  ( 1.000000000000000000, 0.000000000000000000, 0.000000000000000000 ) ) ;
#28 = CARTESIAN_POINT ( 'NONE',  ( 0.000000000000000000, 0.000000000000000000, 15.00000000000000000 ) ) ;
#29 = FACE_BOUND ( 'NONE', #12, .T. ) ;
#30 = CARTESIAN_POINT ( 'NONE',  ( 0.000000000000000000, 0.000000000000000000, 40.00000000000000000 ) ) ;
#31 = DATE_AND_TIME ( #128, #35 ) ;
#32 = LINE ( 'NONE', #232, #137 ) ;
#33 = AXIS2_PLACEMENT_3D ( 'NONE', #243, #16, #167 ) ;
#34 = ORIENTED_EDGE ( 'NONE', *, *, #260, .T. ) ;
#35 = LOCAL_TIME ( 8, 51, 38.00000000000000000, #58 ) ;
#36 = CC_DESIGN_PERSON_AND_ORGANIZATION_ASSIGNMENT ( #4, #85, ( #227 ) ) ;
#37 = ORIENTED_EDGE ( 'NONE', *, *, #17, .F. ) ;
#38 = ORIENTED_EDGE ( 'NONE', *, *, #164, .F. ) ;
#39 = ORIENTED_EDGE ( 'NONE', *, *, #287, .T. ) ;
#40 = APPLICATION_CONTEXT ( 'configuration controlled 3d designs of mechanical parts and assemblies' ) ;
#41 = VERTEX_POINT ( 'NONE', #215 ) ;
#42 = FACE_OUTER_BOUND ( 'NONE', #205, .T. ) ;
#43 = CC_DESIGN_SECURITY_CLASSIFICATION ( #131, ( #227 ) ) ;
#44 = FACE_BOUND ( 'NONE', #138, .T. ) ;
#45 = CYLINDRICAL_SURFACE ( 'NONE', #81, 9.000000000000000000 ) ;
#46 = DIRECTION ( 'NONE',  ( 0.000000000000000000, 0.000000000000000000, 1.000000000000000000 ) ) ;
#47 = ORIENTED_EDGE ( 'NONE', *, *, #260, .F. ) ;
#48 = APPLICATION_PROTOCOL_DEFINITION ( 'international standard', 'config_control_design', 1994, #277 ) ;
#49 = LOCAL_TIME ( 8, 51, 38.00000000000000000, #300 ) ;
#50 = CARTESIAN_POINT ( 'NONE',  ( 0.000000000000000000, 0.000000000000000000, 50.00000000000000000 ) ) ;
#51 = CARTESIAN_POINT ( 'NONE',  ( 0.000000000000000000, 0.000000000000000000, 0.000000000000000000 ) ) ;
#52 = CARTESIAN_POINT ( 'NONE',  ( 0.000000000000000000, 0.000000000000000000, 15.00000000000000000 ) ) ;
#53 = DATE_AND_TIME ( #75, #49 ) ;
#54 = DIRECTION ( 'NONE',  ( 1.000000000000000000, 0.000000000000000000, 0.000000000000000000 ) ) ;
#55 = AXIS2_PLACEMENT_3D ( 'NONE', #201, #225, #230 ) ;
#56 = FACE_OUTER_BOUND ( 'NONE', #296, .T. ) ;
#57 = EDGE_LOOP ( 'NONE', ( #247, #192, #240, #210 ) ) ;
#58 = COORDINATED_UNIVERSAL_TIME_OFFSET ( 9, 0, .AHEAD. ) ;
#59 = AXIS2_PLACEMENT_3D ( 'NONE', #228, #106, #78 ) ;
#60 = EDGE_CURVE ( 'NONE', #292, #234, #314, .T. ) ;
#61 = CARTESIAN_POINT ( 'NONE',  ( -25.00000000000000000, 3.061616997868383043E-15, 50.00000000000000000 ) ) ;
#62 = EDGE_CURVE ( 'NONE', #117, #245, #299, .T. ) ;
#63 = CYLINDRICAL_SURFACE ( 'NONE', #203, 13.00000000000000000 ) ;
#64 = ADVANCED_FACE ( 'NONE', ( #270 ), #45, .F. ) ;
#65 = DIRECTION ( 'NONE',  ( 0.000000000000000000, 0.000000000000000000, 1.000000000000000000 ) ) ;
#66 = DIRECTION ( 'NONE',  ( 1.000000000000000000, 0.000000000000000000, 0.000000000000000000 ) ) ;
#67 = ORIENTED_EDGE ( 'NONE', *, *, #5, .T. ) ;
#68 = EDGE_CURVE ( 'NONE', #245, #97, #326, .T. ) ;
#69 = APPROVAL_PERSON_ORGANIZATION ( #286, #268, #285 ) ;
#70 = FACE_OUTER_BOUND ( 'NONE', #308, .T. ) ;
#71 = PERSON_AND_ORGANIZATION ( #218, #236 ) ;
#72 = CARTESIAN_POINT ( 'NONE',  ( 0.000000000000000000, 0.000000000000000000, 50.00000000000000000 ) ) ;
#73 = DIRECTION ( 'NONE',  ( 1.000000000000000000, 0.000000000000000000, 0.000000000000000000 ) ) ;
#74 = CARTESIAN_POINT ( 'NONE',  ( -13.00000000000000000, 1.592040838891559095E-15, 40.00000000000000000 ) ) ;
#75 = CALENDAR_DATE ( 2021, 25, 10 ) ;
#76 = DIRECTION ( 'NONE',  ( 1.000000000000000000, 0.000000000000000000, 0.000000000000000000 ) ) ;
#77 = FACE_BOUND ( 'NONE', #266, .T. ) ;
#78 = DIRECTION ( 'NONE',  ( 1.000000000000000000, 0.000000000000000000, 0.000000000000000000 ) ) ;
#79 = DATE_AND_TIME ( #181, #171 ) ;
#80 = FACE_OUTER_BOUND ( 'NONE', #14, .T. ) ;
#81 = AXIS2_PLACEMENT_3D ( 'NONE', #280, #150, #54 ) ;
#82 = CALENDAR_DATE ( 2021, 25, 10 ) ;
#83 = FACE_OUTER_BOUND ( 'NONE', #87, .T. ) ;
#84 = ORIENTED_EDGE ( 'NONE', *, *, #60, .F. ) ;
#85 = PERSON_AND_ORGANIZATION_ROLE ( 'creator' ) ;
#86 = CC_DESIGN_PERSON_AND_ORGANIZATION_ASSIGNMENT ( #224, #174, ( #158 ) ) ;
#87 = EDGE_LOOP ( 'NONE', ( #321, #265, #132, #67 ) ) ;
#88 = ADVANCED_FACE ( 'NONE', ( #80 ), #253, .F. ) ;
#89 = DIRECTION ( 'NONE',  ( 0.000000000000000000, 0.000000000000000000, 1.000000000000000000 ) ) ;
#90 = AXIS2_PLACEMENT_3D ( 'NONE', #6, #206, #186 ) ;
#91 = CYLINDRICAL_SURFACE ( 'NONE', #289, 9.000000000000000000 ) ;
#92 = CARTESIAN_POINT ( 'NONE',  ( -25.00000000000000000, 3.061616997868383043E-15, 40.00000000000000000 ) ) ;
#93 = CALENDAR_DATE ( 2021, 25, 10 ) ;
#94 = DIRECTION ( 'NONE',  ( 1.000000000000000000, 0.000000000000000000, 0.000000000000000000 ) ) ;
#95 = DATE_TIME_ROLE ( 'creation_date' ) ;
#96 = CIRCLE ( 'NONE', #24, 13.00000000000000000 ) ;
#97 = VERTEX_POINT ( 'NONE', #304 ) ;
#98 = CARTESIAN_POINT ( 'NONE',  ( -9.000000000000000000, 1.102182119232617714E-15, 0.000000000000000000 ) ) ;
#99 = CARTESIAN_POINT ( 'NONE',  ( -13.00000000000000000, 1.592040838891559095E-15, 15.00000000000000000 ) ) ;
#100 = APPROVAL_ROLE ( '' ) ;
#101 = CARTESIAN_POINT ( 'NONE',  ( 0.000000000000000000, 0.000000000000000000, 40.00000000000000000 ) ) ;
#102 = AXIS2_PLACEMENT_3D ( 'NONE', #50, #148, #27 ) ;
#103 = DIRECTION ( 'NONE',  ( 1.000000000000000000, 0.000000000000000000, 0.000000000000000000 ) ) ;
#104 = SHAPE_DEFINITION_REPRESENTATION ( #254, #105 ) ;
#105 = ADVANCED_BREP_SHAPE_REPRESENTATION ( 'bj300-16050', ( #259, #147 ), #118 ) ;
#106 = DIRECTION ( 'NONE',  ( 0.000000000000000000, 0.000000000000000000, 1.000000000000000000 ) ) ;
#107 = PERSON_AND_ORGANIZATION ( #218, #236 ) ;
#108 = AXIS2_PLACEMENT_3D ( 'NONE', #193, #276, #324 ) ;
#109 = CARTESIAN_POINT ( 'NONE',  ( 25.00000000000000000, 0.000000000000000000, 40.00000000000000000 ) ) ;
#110 = VERTEX_POINT ( 'NONE', #255 ) ;
#111 = ORIENTED_EDGE ( 'NONE', *, *, #62, .T. ) ;
#112 = CIRCLE ( 'NONE', #309, 13.00000000000000000 ) ;
#113 = COORDINATED_UNIVERSAL_TIME_OFFSET ( 9, 0, .AHEAD. ) ;
#114 = ORIENTED_EDGE ( 'NONE', *, *, #288, .T. ) ;
#115 = ORIENTED_EDGE ( 'NONE', *, *, #202, .F. ) ;
#116 = DIRECTION ( 'NONE',  ( 0.000000000000000000, 0.000000000000000000, 1.000000000000000000 ) ) ;
#117 = VERTEX_POINT ( 'NONE', #153 ) ;
#118 =( GEOMETRIC_REPRESENTATION_CONTEXT ( 3 ) GLOBAL_UNCERTAINTY_ASSIGNED_CONTEXT ( ( #170 ) ) GLOBAL_UNIT_ASSIGNED_CONTEXT ( ( #19, #251, #149 ) ) REPRESENTATION_CONTEXT ( 'NONE', 'WORKASPACE' ) );
#119 = DIRECTION ( 'NONE',  ( 0.000000000000000000, 0.000000000000000000, 1.000000000000000000 ) ) ;
#120 = VERTEX_POINT ( 'NONE', #178 ) ;
#121 = ADVANCED_FACE ( 'NONE', ( #56 ), #298, .T. ) ;
#122 = CARTESIAN_POINT ( 'NONE',  ( -25.00000000000000000, 3.061616997868383043E-15, 0.000000000000000000 ) ) ;
#123 = COORDINATED_UNIVERSAL_TIME_OFFSET ( 9, 0, .AHEAD. ) ;
#124 = EDGE_CURVE ( 'NONE', #145, #315, #96, .T. ) ;
#125 = PLANE ( 'NONE',  #55 ) ;
#126 = APPROVAL_DATE_TIME ( #133, #325 ) ;
#127 = LINE ( 'NONE', #74, #242 ) ;
#128 = CALENDAR_DATE ( 2021, 25, 10 ) ;
#129 = DIRECTION ( 'NONE',  ( 0.000000000000000000, 0.000000000000000000, 1.000000000000000000 ) ) ;
#130 = CIRCLE ( 'NONE', #311, 25.00000000000000000 ) ;
#131 = SECURITY_CLASSIFICATION ( '', '', #157 ) ;
#132 = ORIENTED_EDGE ( 'NONE', *, *, #202, .T. ) ;
#133 = DATE_AND_TIME ( #82, #195 ) ;
#134 = PRODUCT_DEFINITION ( 'UNKNOWN', '', #227, #319 ) ;
#135 = EDGE_CURVE ( 'NONE', #117, #120, #32, .T. ) ;
#136 = CLOSED_SHELL ( 'NONE', ( #88, #190, #64, #22, #2, #160, #121, #211, #241 ) ) ;
#137 = VECTOR ( 'NONE', #282, 1000.000000000000000 ) ;
#138 = EDGE_LOOP ( 'NONE', ( #213, #269 ) ) ;
#139 = PLANE ( 'NONE',  #33 ) ;
#140 = CARTESIAN_POINT ( 'NONE',  ( 0.000000000000000000, 0.000000000000000000, 0.000000000000000000 ) ) ;
#141 = CARTESIAN_POINT ( 'NONE',  ( 0.000000000000000000, 0.000000000000000000, 50.00000000000000000 ) ) ;
#142 = ORIENTED_EDGE ( 'NONE', *, *, #214, .T. ) ;
#143 = APPROVAL_STATUS ( 'not_yet_approved' ) ;
#144 = CIRCLE ( 'NONE', #273, 9.000000000000000000 ) ;
#145 = VERTEX_POINT ( 'NONE', #99 ) ;
#146 = EDGE_CURVE ( 'NONE', #145, #110, #127, .T. ) ;
#147 = AXIS2_PLACEMENT_3D ( 'NONE', #51, #46, #246 ) ;
#148 = DIRECTION ( 'NONE',  ( 0.000000000000000000, 0.000000000000000000, 1.000000000000000000 ) ) ;
#149 =( NAMED_UNIT ( * ) SI_UNIT ( $, .STERADIAN. ) SOLID_ANGLE_UNIT ( ) );
#150 = DIRECTION ( 'NONE',  ( 0.000000000000000000, 0.000000000000000000, 1.000000000000000000 ) ) ;
#151 = PERSON_AND_ORGANIZATION ( #218, #236 ) ;
#152 = CC_DESIGN_DATE_AND_TIME_ASSIGNMENT ( #316, #95, ( #134 ) ) ;
#153 = CARTESIAN_POINT ( 'NONE',  ( 9.000000000000000000, 0.000000000000000000, 0.000000000000000000 ) ) ;
#154 = CC_DESIGN_APPROVAL ( #281, ( #134 ) ) ;
#155 = APPROVAL_ROLE ( '' ) ;
#156 = DIRECTION ( 'NONE',  ( 0.000000000000000000, 0.000000000000000000, 1.000000000000000000 ) ) ;
#157 = SECURITY_CLASSIFICATION_LEVEL ( 'unclassified' ) ;
#158 = PRODUCT ( 'bj300-16050', 'bj300-16050', '', ( #250 ) ) ;
#159 = ORIENTED_EDGE ( 'NONE', *, *, #124, .T. ) ;
#160 = ADVANCED_FACE ( 'NONE', ( #274, #29 ), #125, .F. ) ;
#161 = AXIS2_PLACEMENT_3D ( 'NONE', #26, #248, #222 ) ;
#162 = ORIENTED_EDGE ( 'NONE', *, *, #7, .T. ) ;
#163 = DIRECTION ( 'NONE',  ( 1.000000000000000000, 0.000000000000000000, 0.000000000000000000 ) ) ;
#164 = EDGE_CURVE ( 'NONE', #290, #234, #317, .T. ) ;
#165 = DIRECTION ( 'NONE',  ( 0.000000000000000000, 0.000000000000000000, 1.000000000000000000 ) ) ;
#166 = DIRECTION ( 'NONE',  ( 1.000000000000000000, 0.000000000000000000, 0.000000000000000000 ) ) ;
#167 = DIRECTION ( 'NONE',  ( -1.000000000000000000, 0.000000000000000000, 0.000000000000000000 ) ) ;
#168 = CARTESIAN_POINT ( 'NONE',  ( 0.000000000000000000, 0.000000000000000000, 50.00000000000000000 ) ) ;
#169 = DIRECTION ( 'NONE',  ( 0.000000000000000000, 0.000000000000000000, 1.000000000000000000 ) ) ;
#170 = UNCERTAINTY_MEASURE_WITH_UNIT (LENGTH_MEASURE( 1.000000000000000082E-05 ), #19, 'distance_accuracy_value', 'NONE');
#171 = LOCAL_TIME ( 8, 51, 38.00000000000000000, #123 ) ;
#172 = APPROVAL_DATE_TIME ( #53, #281 ) ;
#173 = CARTESIAN_POINT ( 'NONE',  ( 13.00000000000000000, 0.000000000000000000, 40.00000000000000000 ) ) ;
#174 = PERSON_AND_ORGANIZATION_ROLE ( 'design_owner' ) ;
#175 = LINE ( 'NONE', #173, #264 ) ;
#176 = DIRECTION ( 'NONE',  ( 0.000000000000000000, 0.000000000000000000, 1.000000000000000000 ) ) ;
#177 = CIRCLE ( 'NONE', #108, 25.00000000000000000 ) ;
#178 = CARTESIAN_POINT ( 'NONE',  ( 9.000000000000000000, 0.000000000000000000, 15.00000000000000000 ) ) ;
#179 = PRODUCT_RELATED_PRODUCT_CATEGORY ( 'detail', '', ( #158 ) ) ;
#180 = DIRECTION ( 'NONE',  ( 1.000000000000000000, 0.000000000000000000, 0.000000000000000000 ) ) ;
#181 = CALENDAR_DATE ( 2021, 25, 10 ) ;
#182 = ORIENTED_EDGE ( 'NONE', *, *, #164, .T. ) ;
#183 = DIRECTION ( 'NONE',  ( 0.000000000000000000, 0.000000000000000000, 1.000000000000000000 ) ) ;
#184 = APPROVAL_PERSON_ORGANIZATION ( #71, #325, #155 ) ;
#185 = CC_DESIGN_PERSON_AND_ORGANIZATION_ASSIGNMENT ( #237, #11, ( #134 ) ) ;
#186 = DIRECTION ( 'NONE',  ( -1.000000000000000000, 0.000000000000000000, 0.000000000000000000 ) ) ;
#187 = ORIENTED_EDGE ( 'NONE', *, *, #303, .T. ) ;
#188 = AXIS2_PLACEMENT_3D ( 'NONE', #141, #119, #73 ) ;
#189 = ORIENTED_EDGE ( 'NONE', *, *, #68, .F. ) ;
#190 = ADVANCED_FACE ( 'NONE', ( #323 ), #198, .T. ) ;
#191 = EDGE_LOOP ( 'NONE', ( #182, #194 ) ) ;
#192 = ORIENTED_EDGE ( 'NONE', *, *, #68, .T. ) ;
#193 = CARTESIAN_POINT ( 'NONE',  ( 0.000000000000000000, 0.000000000000000000, 0.000000000000000000 ) ) ;
#194 = ORIENTED_EDGE ( 'NONE', *, *, #17, .T. ) ;
#195 = LOCAL_TIME ( 8, 51, 38.00000000000000000, #204 ) ;
#196 = CARTESIAN_POINT ( 'NONE',  ( 0.000000000000000000, 0.000000000000000000, 0.000000000000000000 ) ) ;
#197 = CARTESIAN_POINT ( 'NONE',  ( 25.00000000000000000, 0.000000000000000000, 50.00000000000000000 ) ) ;
#198 = CYLINDRICAL_SURFACE ( 'NONE', #9, 25.00000000000000000 ) ;
#199 = AXIS2_PLACEMENT_3D ( 'NONE', #297, #320, #295 ) ;
#200 = DIRECTION ( 'NONE',  ( 0.000000000000000000, 0.000000000000000000, 1.000000000000000000 ) ) ;
#201 = CARTESIAN_POINT ( 'NONE',  ( 9.000000000000000000, 0.000000000000000000, 0.000000000000000000 ) ) ;
#202 = EDGE_CURVE ( 'NONE', #315, #272, #175, .T. ) ;
#203 = AXIS2_PLACEMENT_3D ( 'NONE', #235, #89, #180 ) ;
#204 = COORDINATED_UNIVERSAL_TIME_OFFSET ( 9, 0, .AHEAD. ) ;
#205 = EDGE_LOOP ( 'NONE', ( #114, #159 ) ) ;
#206 = DIRECTION ( 'NONE',  ( 0.000000000000000000, 0.000000000000000000, -1.000000000000000000 ) ) ;
#207 = EDGE_CURVE ( 'NONE', #97, #120, #306, .T. ) ;
#208 = AXIS2_PLACEMENT_3D ( 'NONE', #52, #252, #302 ) ;
#209 = VECTOR ( 'NONE', #165, 1000.000000000000000 ) ;
#210 = ORIENTED_EDGE ( 'NONE', *, *, #135, .F. ) ;
#211 = ADVANCED_FACE ( 'NONE', ( #77, #329 ), #263, .F. ) ;
#212 = CC_DESIGN_APPROVAL ( #268, ( #131 ) ) ;
#213 = ORIENTED_EDGE ( 'NONE', *, *, #303, .F. ) ;
#214 = EDGE_CURVE ( 'NONE', #41, #290, #258, .T. ) ;
#215 = CARTESIAN_POINT ( 'NONE',  ( 25.00000000000000000, 0.000000000000000000, 0.000000000000000000 ) ) ;
#216 = ORIENTED_EDGE ( 'NONE', *, *, #60, .T. ) ;
#217 = CC_DESIGN_PERSON_AND_ORGANIZATION_ASSIGNMENT ( #151, #307, ( #227 ) ) ;
#218 = PERSON ( 'UNSPECIFIED', 'UNSPECIFIED', 'UNSPECIFIED', ('UNSPECIFIED'), ('UNSPECIFIED'), ('UNSPECIFIED') ) ;
#219 = APPLICATION_PROTOCOL_DEFINITION ( 'international standard', 'config_control_design', 1994, #40 ) ;
#220 = ORIENTED_EDGE ( 'NONE', *, *, #62, .F. ) ;
#221 = CIRCLE ( 'NONE', #161, 9.000000000000000000 ) ;
#222 = DIRECTION ( 'NONE',  ( 1.000000000000000000, 0.000000000000000000, 0.000000000000000000 ) ) ;
#223 = DIRECTION ( 'NONE',  ( 0.000000000000000000, 0.000000000000000000, 1.000000000000000000 ) ) ;
#224 = PERSON_AND_ORGANIZATION ( #218, #236 ) ;
#225 = DIRECTION ( 'NONE',  ( 0.000000000000000000, 0.000000000000000000, 1.000000000000000000 ) ) ;
#226 = CARTESIAN_POINT ( 'NONE',  ( 13.00000000000000000, 0.000000000000000000, 50.00000000000000000 ) ) ;
#227 = PRODUCT_DEFINITION_FORMATION_WITH_SPECIFIED_SOURCE ( 'ANY', '', #158, .NOT_KNOWN. ) ;
#228 = CARTESIAN_POINT ( 'NONE',  ( 0.000000000000000000, 0.000000000000000000, 40.00000000000000000 ) ) ;
#229 = PERSON_AND_ORGANIZATION_ROLE ( 'classification_officer' ) ;
#230 = DIRECTION ( 'NONE',  ( 1.000000000000000000, 0.000000000000000000, 0.000000000000000000 ) ) ;
#231 = APPROVAL_DATE_TIME ( #31, #268 ) ;
#232 = CARTESIAN_POINT ( 'NONE',  ( 9.000000000000000000, 0.000000000000000000, 40.00000000000000000 ) ) ;
#233 = LOCAL_TIME ( 8, 51, 38.00000000000000000, #113 ) ;
#234 = VERTEX_POINT ( 'NONE', #61 ) ;
#235 = CARTESIAN_POINT ( 'NONE',  ( 0.000000000000000000, 0.000000000000000000, 40.00000000000000000 ) ) ;
#236 = ORGANIZATION ( 'UNSPECIFIED', 'UNSPECIFIED', '' ) ;
#237 = PERSON_AND_ORGANIZATION ( #218, #236 ) ;
#238 = CC_DESIGN_DATE_AND_TIME_ASSIGNMENT ( #79, #256, ( #131 ) ) ;
#239 = VECTOR ( 'NONE', #129, 1000.000000000000000 ) ;
#240 = ORIENTED_EDGE ( 'NONE', *, *, #207, .T. ) ;
#241 = ADVANCED_FACE ( 'NONE', ( #83 ), #63, .F. ) ;
#242 = VECTOR ( 'NONE', #169, 1000.000000000000000 ) ;
#243 = CARTESIAN_POINT ( 'NONE',  ( 13.00000000000000000, 0.000000000000000000, 15.00000000000000000 ) ) ;
#244 = CC_DESIGN_PERSON_AND_ORGANIZATION_ASSIGNMENT ( #107, #229, ( #131 ) ) ;
#245 = VERTEX_POINT ( 'NONE', #98 ) ;
#246 = DIRECTION ( 'NONE',  ( 1.000000000000000000, 0.000000000000000000, 0.000000000000000000 ) ) ;
#247 = ORIENTED_EDGE ( 'NONE', *, *, #7, .F. ) ;
#248 = DIRECTION ( 'NONE',  ( 0.000000000000000000, 0.000000000000000000, 1.000000000000000000 ) ) ;
#249 = ORIENTED_EDGE ( 'NONE', *, *, #287, .F. ) ;
#250 = MECHANICAL_CONTEXT ( 'NONE', #277, 'mechanical' ) ;
#251 =( NAMED_UNIT ( * ) PLANE_ANGLE_UNIT ( ) SI_UNIT ( $, .RADIAN. ) );
#252 = DIRECTION ( 'NONE',  ( 0.000000000000000000, 0.000000000000000000, 1.000000000000000000 ) ) ;
#253 = CYLINDRICAL_SURFACE ( 'NONE', #59, 13.00000000000000000 ) ;
#254 = PRODUCT_DEFINITION_SHAPE ( 'NONE', 'NONE',  #134 ) ;
#255 = CARTESIAN_POINT ( 'NONE',  ( -13.00000000000000000, 1.592040838891559095E-15, 50.00000000000000000 ) ) ;
#256 = DATE_TIME_ROLE ( 'classification_date' ) ;
#257 = DIRECTION ( 'NONE',  ( 1.000000000000000000, 0.000000000000000000, 0.000000000000000000 ) ) ;
#258 = LINE ( 'NONE', #109, #284 ) ;
#259 = MANIFOLD_SOLID_BREP ( 'Imported1', #136 ) ;
#260 = EDGE_CURVE ( 'NONE', #292, #41, #177, .T. ) ;
#261 = ORIENTED_EDGE ( 'NONE', *, *, #135, .T. ) ;
#262 = CIRCLE ( 'NONE', #20, 13.00000000000000000 ) ;
#263 = PLANE ( 'NONE',  #90 ) ;
#264 = VECTOR ( 'NONE', #278, 1000.000000000000000 ) ;
#265 = ORIENTED_EDGE ( 'NONE', *, *, #288, .F. ) ;
#266 = EDGE_LOOP ( 'NONE', ( #312, #294 ) ) ;
#267 = DIRECTION ( 'NONE',  ( 0.000000000000000000, 0.000000000000000000, 1.000000000000000000 ) ) ;
#268 = APPROVAL ( #328, 'UNSPECIFIED' ) ;
#269 = ORIENTED_EDGE ( 'NONE', *, *, #207, .F. ) ;
#270 = FACE_OUTER_BOUND ( 'NONE', #57, .T. ) ;
#271 = CARTESIAN_POINT ( 'NONE',  ( 13.00000000000000000, 0.000000000000000000, 15.00000000000000000 ) ) ;
#272 = VERTEX_POINT ( 'NONE', #226 ) ;
#273 = AXIS2_PLACEMENT_3D ( 'NONE', #196, #223, #18 ) ;
#274 = FACE_OUTER_BOUND ( 'NONE', #10, .T. ) ;
#275 = CC_DESIGN_APPROVAL ( #325, ( #227 ) ) ;
#276 = DIRECTION ( 'NONE',  ( 0.000000000000000000, 0.000000000000000000, 1.000000000000000000 ) ) ;
#277 = APPLICATION_CONTEXT ( 'configuration controlled 3d designs of mechanical parts and assemblies' ) ;
#278 = DIRECTION ( 'NONE',  ( 0.000000000000000000, 0.000000000000000000, 1.000000000000000000 ) ) ;
#279 = APPROVAL_STATUS ( 'not_yet_approved' ) ;
#280 = CARTESIAN_POINT ( 'NONE',  ( 0.000000000000000000, 0.000000000000000000, 40.00000000000000000 ) ) ;
#281 = APPROVAL ( #279, 'UNSPECIFIED' ) ;
#282 = DIRECTION ( 'NONE',  ( 0.000000000000000000, 0.000000000000000000, 1.000000000000000000 ) ) ;
#283 = CIRCLE ( 'NONE', #199, 25.00000000000000000 ) ;
#284 = VECTOR ( 'NONE', #183, 1000.000000000000000 ) ;
#285 = APPROVAL_ROLE ( '' ) ;
#286 = PERSON_AND_ORGANIZATION ( #218, #236 ) ;
#287 = EDGE_CURVE ( 'NONE', #41, #292, #283, .T. ) ;
#288 = EDGE_CURVE ( 'NONE', #315, #145, #112, .T. ) ;
#289 = AXIS2_PLACEMENT_3D ( 'NONE', #291, #318, #25 ) ;
#290 = VERTEX_POINT ( 'NONE', #197 ) ;
#291 = CARTESIAN_POINT ( 'NONE',  ( 0.000000000000000000, 0.000000000000000000, 40.00000000000000000 ) ) ;
#292 = VERTEX_POINT ( 'NONE', #122 ) ;
#293 = EDGE_CURVE ( 'NONE', #110, #272, #1, .T. ) ;
#294 = ORIENTED_EDGE ( 'NONE', *, *, #293, .F. ) ;
#295 = DIRECTION ( 'NONE',  ( 1.000000000000000000, 0.000000000000000000, 0.000000000000000000 ) ) ;
#296 = EDGE_LOOP ( 'NONE', ( #84, #34, #142, #37 ) ) ;
#297 = CARTESIAN_POINT ( 'NONE',  ( 0.000000000000000000, 0.000000000000000000, 0.000000000000000000 ) ) ;
#298 = CYLINDRICAL_SURFACE ( 'NONE', #15, 25.00000000000000000 ) ;
#299 = CIRCLE ( 'NONE', #13, 9.000000000000000000 ) ;
#300 = COORDINATED_UNIVERSAL_TIME_OFFSET ( 9, 0, .AHEAD. ) ;
#301 = DIRECTION ( 'NONE',  ( 0.000000000000000000, 0.000000000000000000, 1.000000000000000000 ) ) ;
#302 = DIRECTION ( 'NONE',  ( 1.000000000000000000, 0.000000000000000000, 0.000000000000000000 ) ) ;
#303 = EDGE_CURVE ( 'NONE', #120, #97, #221, .T. ) ;
#304 = CARTESIAN_POINT ( 'NONE',  ( -9.000000000000000000, 1.102182119232617714E-15, 15.00000000000000000 ) ) ;
#305 = CARTESIAN_POINT ( 'NONE',  ( -9.000000000000000000, 1.102182119232617714E-15, 40.00000000000000000 ) ) ;
#306 = CIRCLE ( 'NONE', #208, 9.000000000000000000 ) ;
#307 = PERSON_AND_ORGANIZATION_ROLE ( 'design_supplier' ) ;
#308 = EDGE_LOOP ( 'NONE', ( #189, #220, #261, #187 ) ) ;
#309 = AXIS2_PLACEMENT_3D ( 'NONE', #23, #200, #166 ) ;
#310 = ORIENTED_EDGE ( 'NONE', *, *, #293, .T. ) ;
#311 = AXIS2_PLACEMENT_3D ( 'NONE', #72, #65, #163 ) ;
#312 = ORIENTED_EDGE ( 'NONE', *, *, #5, .F. ) ;
#313 = ORIENTED_EDGE ( 'NONE', *, *, #124, .F. ) ;
#314 = LINE ( 'NONE', #92, #209 ) ;
#315 = VERTEX_POINT ( 'NONE', #271 ) ;
#316 = DATE_AND_TIME ( #93, #233 ) ;
#317 = CIRCLE ( 'NONE', #102, 25.00000000000000000 ) ;
#318 = DIRECTION ( 'NONE',  ( 0.000000000000000000, 0.000000000000000000, 1.000000000000000000 ) ) ;
#319 = DESIGN_CONTEXT ( 'detailed design', #40, 'design' ) ;
#320 = DIRECTION ( 'NONE',  ( 0.000000000000000000, 0.000000000000000000, 1.000000000000000000 ) ) ;
#321 = ORIENTED_EDGE ( 'NONE', *, *, #146, .F. ) ;
#322 = PERSON_AND_ORGANIZATION ( #218, #236 ) ;
#323 = FACE_OUTER_BOUND ( 'NONE', #21, .T. ) ;
#324 = DIRECTION ( 'NONE',  ( 1.000000000000000000, 0.000000000000000000, 0.000000000000000000 ) ) ;
#325 = APPROVAL ( #143, 'UNSPECIFIED' ) ;
#326 = LINE ( 'NONE', #305, #239 ) ;
#327 = APPROVAL_PERSON_ORGANIZATION ( #322, #281, #100 ) ;
#328 = APPROVAL_STATUS ( 'not_yet_approved' ) ;
#329 = FACE_OUTER_BOUND ( 'NONE', #191, .T. ) ;
ENDSEC;
END-ISO-10303-21;
