ISO-10303-21;
HEADER;
FILE_DESCRIPTION (( 'STEP AP203' ),
    '1' );
FILE_NAME ('bj300-12032.STEP',
    '2021-10-24T23:51:18',
    ( '' ),
    ( '' ),
    'SwSTEP 2.0',
    'SolidWorks 2020',
    '' );
FILE_SCHEMA (( 'CONFIG_CONTROL_DESIGN' ));
ENDSEC;

DATA;
#1 = CARTESIAN_POINT ( 'NONE',  ( 20.00000000000000000, 0.000000000000000000, 32.00000000000000000 ) ) ;
#2 = ORIENTED_EDGE ( 'NONE', *, *, #226, .F. ) ;
#3 = APPLICATION_PROTOCOL_DEFINITION ( 'international standard', 'config_control_design', 1994, #197 ) ;
#4 = CARTESIAN_POINT ( 'NONE',  ( 10.00000000000000000, 0.000000000000000000, 32.00000000000000000 ) ) ;
#5 = APPLICATION_CONTEXT ( 'configuration controlled 3d designs of mechanical parts and assemblies' ) ;
#6 = LOCAL_TIME ( 8, 51, 18.00000000000000000, #259 ) ;
#7 = ORIENTED_EDGE ( 'NONE', *, *, #167, .F. ) ;
#8 = CARTESIAN_POINT ( 'NONE',  ( -20.00000000000000000, 2.449293598294706513E-15, 0.000000000000000000 ) ) ;
#9 = VERTEX_POINT ( 'NONE', #51 ) ;
#10 = AXIS2_PLACEMENT_3D ( 'NONE', #62, #159, #108 ) ;
#11 = EDGE_LOOP ( 'NONE', ( #139, #75, #295, #199 ) ) ;
#12 = ORIENTED_EDGE ( 'NONE', *, *, #144, .F. ) ;
#13 = CARTESIAN_POINT ( 'NONE',  ( 0.000000000000000000, 0.000000000000000000, 40.00000000000000000 ) ) ;
#14 = DIRECTION ( 'NONE',  ( 0.000000000000000000, 0.000000000000000000, 1.000000000000000000 ) ) ;
#15 = CALENDAR_DATE ( 2021, 25, 10 ) ;
#16 = DIRECTION ( 'NONE',  ( 0.000000000000000000, 0.000000000000000000, 1.000000000000000000 ) ) ;
#17 = ADVANCED_BREP_SHAPE_REPRESENTATION ( 'bj300-12032', ( #123, #261 ), #188 ) ;
#18 = DIRECTION ( 'NONE',  ( 0.000000000000000000, 0.000000000000000000, 1.000000000000000000 ) ) ;
#19 = DIRECTION ( 'NONE',  ( 1.000000000000000000, 0.000000000000000000, 0.000000000000000000 ) ) ;
#20 = ORIENTED_EDGE ( 'NONE', *, *, #192, .T. ) ;
#21 = CIRCLE ( 'NONE', #224, 7.000000000000000000 ) ;
#22 = PLANE ( 'NONE',  #298 ) ;
#23 = CC_DESIGN_PERSON_AND_ORGANIZATION_ASSIGNMENT ( #107, #210, ( #156 ) ) ;
#24 = ORIENTED_EDGE ( 'NONE', *, *, #223, .T. ) ;
#25 = VERTEX_POINT ( 'NONE', #4 ) ;
#26 = VECTOR ( 'NONE', #80, 1000.000000000000000 ) ;
#27 = DIRECTION ( 'NONE',  ( 1.000000000000000000, 0.000000000000000000, 0.000000000000000000 ) ) ;
#28 = ORIENTED_EDGE ( 'NONE', *, *, #205, .T. ) ;
#29 = ORIENTED_EDGE ( 'NONE', *, *, #67, .T. ) ;
#30 =( NAMED_UNIT ( * ) PLANE_ANGLE_UNIT ( ) SI_UNIT ( $, .RADIAN. ) );
#31 = EDGE_CURVE ( 'NONE', #250, #290, #151, .T. ) ;
#32 = DIRECTION ( 'NONE',  ( 0.000000000000000000, 0.000000000000000000, 1.000000000000000000 ) ) ;
#33 = COORDINATED_UNIVERSAL_TIME_OFFSET ( 9, 0, .AHEAD. ) ;
#34 = DIRECTION ( 'NONE',  ( 0.000000000000000000, 0.000000000000000000, 1.000000000000000000 ) ) ;
#35 = DIRECTION ( 'NONE',  ( 0.000000000000000000, 0.000000000000000000, 1.000000000000000000 ) ) ;
#36 = CC_DESIGN_DATE_AND_TIME_ASSIGNMENT ( #235, #324, ( #239 ) ) ;
#37 = DATE_TIME_ROLE ( 'creation_date' ) ;
#38 = DIRECTION ( 'NONE',  ( 1.000000000000000000, 0.000000000000000000, 0.000000000000000000 ) ) ;
#39 = CARTESIAN_POINT ( 'NONE',  ( 20.00000000000000000, 0.000000000000000000, 32.00000000000000000 ) ) ;
#40 = ADVANCED_FACE ( 'NONE', ( #200 ), #300, .T. ) ;
#41 = DIRECTION ( 'NONE',  ( 1.000000000000000000, 0.000000000000000000, 0.000000000000000000 ) ) ;
#42 = EDGE_LOOP ( 'NONE', ( #193, #278 ) ) ;
#43 = EDGE_CURVE ( 'NONE', #191, #196, #267, .T. ) ;
#44 = FACE_BOUND ( 'NONE', #258, .T. ) ;
#45 = ORIENTED_EDGE ( 'NONE', *, *, #217, .T. ) ;
#46 = CARTESIAN_POINT ( 'NONE',  ( 7.000000000000000000, 0.000000000000000000, 0.000000000000000000 ) ) ;
#47 = EDGE_CURVE ( 'NONE', #290, #25, #225, .T. ) ;
#48 = CYLINDRICAL_SURFACE ( 'NONE', #52, 7.000000000000000000 ) ;
#49 = DIRECTION ( 'NONE',  ( 1.000000000000000000, 0.000000000000000000, 0.000000000000000000 ) ) ;
#50 = ORIENTED_EDGE ( 'NONE', *, *, #316, .T. ) ;
#51 = CARTESIAN_POINT ( 'NONE',  ( 20.00000000000000000, 0.000000000000000000, 0.000000000000000000 ) ) ;
#52 = AXIS2_PLACEMENT_3D ( 'NONE', #145, #248, #27 ) ;
#53 = MECHANICAL_CONTEXT ( 'NONE', #197, 'mechanical' ) ;
#54 = DIRECTION ( 'NONE',  ( 1.000000000000000000, 0.000000000000000000, 0.000000000000000000 ) ) ;
#55 = ORIENTED_EDGE ( 'NONE', *, *, #265, .F. ) ;
#56 = CARTESIAN_POINT ( 'NONE',  ( -7.000000000000000000, 8.572527594031473190E-16, 0.000000000000000000 ) ) ;
#57 = APPROVAL_STATUS ( 'not_yet_approved' ) ;
#58 = LOCAL_TIME ( 8, 51, 18.00000000000000000, #240 ) ;
#59 = FACE_OUTER_BOUND ( 'NONE', #232, .T. ) ;
#60 = VECTOR ( 'NONE', #131, 1000.000000000000000 ) ;
#61 = DATE_AND_TIME ( #233, #201 ) ;
#62 = CARTESIAN_POINT ( 'NONE',  ( 10.00000000000000000, 0.000000000000000000, 12.00000000000000000 ) ) ;
#63 = DESIGN_CONTEXT ( 'detailed design', #5, 'design' ) ;
#64 = DIRECTION ( 'NONE',  ( 0.000000000000000000, 0.000000000000000000, 1.000000000000000000 ) ) ;
#65 = PRODUCT_RELATED_PRODUCT_CATEGORY ( 'detail', '', ( #301 ) ) ;
#66 = DIRECTION ( 'NONE',  ( 0.000000000000000000, 0.000000000000000000, -1.000000000000000000 ) ) ;
#67 = EDGE_CURVE ( 'NONE', #296, #252, #83, .T. ) ;
#68 = DIRECTION ( 'NONE',  ( 0.000000000000000000, 0.000000000000000000, 1.000000000000000000 ) ) ;
#69 = VECTOR ( 'NONE', #165, 1000.000000000000000 ) ;
#70 = APPROVAL_ROLE ( '' ) ;
#71 = CC_DESIGN_PERSON_AND_ORGANIZATION_ASSIGNMENT ( #132, #231, ( #254 ) ) ;
#72 = CARTESIAN_POINT ( 'NONE',  ( -7.000000000000000000, 8.572527594031473190E-16, 12.00000000000000000 ) ) ;
#73 = ORIENTED_EDGE ( 'NONE', *, *, #47, .T. ) ;
#74 = CC_DESIGN_PERSON_AND_ORGANIZATION_ASSIGNMENT ( #87, #112, ( #156 ) ) ;
#75 = ORIENTED_EDGE ( 'NONE', *, *, #202, .T. ) ;
#76 = CIRCLE ( 'NONE', #266, 20.00000000000000000 ) ;
#77 = DIRECTION ( 'NONE',  ( 0.000000000000000000, 0.000000000000000000, 1.000000000000000000 ) ) ;
#78 = PERSON_AND_ORGANIZATION ( #86, #212 ) ;
#79 = DIRECTION ( 'NONE',  ( 0.000000000000000000, 0.000000000000000000, 1.000000000000000000 ) ) ;
#80 = DIRECTION ( 'NONE',  ( 0.000000000000000000, 0.000000000000000000, 1.000000000000000000 ) ) ;
#81 = AXIS2_PLACEMENT_3D ( 'NONE', #308, #14, #38 ) ;
#82 = AXIS2_PLACEMENT_3D ( 'NONE', #89, #64, #245 ) ;
#83 = LINE ( 'NONE', #160, #26 ) ;
#84 = CALENDAR_DATE ( 2021, 25, 10 ) ;
#85 = PLANE ( 'NONE',  #10 ) ;
#86 = PERSON ( 'UNSPECIFIED', 'UNSPECIFIED', 'UNSPECIFIED', ('UNSPECIFIED'), ('UNSPECIFIED'), ('UNSPECIFIED') ) ;
#87 = PERSON_AND_ORGANIZATION ( #86, #212 ) ;
#88 = LINE ( 'NONE', #187, #69 ) ;
#89 = CARTESIAN_POINT ( 'NONE',  ( 0.000000000000000000, 0.000000000000000000, 0.000000000000000000 ) ) ;
#90 = LINE ( 'NONE', #95, #255 ) ;
#91 = ORIENTED_EDGE ( 'NONE', *, *, #205, .F. ) ;
#92 = CLOSED_SHELL ( 'NONE', ( #111, #130, #153, #103, #238, #293, #40, #286, #279 ) ) ;
#93 = DIRECTION ( 'NONE',  ( 1.000000000000000000, 0.000000000000000000, 0.000000000000000000 ) ) ;
#94 = SHAPE_DEFINITION_REPRESENTATION ( #150, #17 ) ;
#95 = CARTESIAN_POINT ( 'NONE',  ( -20.00000000000000000, 2.449293598294706513E-15, 40.00000000000000000 ) ) ;
#96 = FACE_OUTER_BOUND ( 'NONE', #147, .T. ) ;
#97 = PERSON_AND_ORGANIZATION ( #86, #212 ) ;
#98 = ORIENTED_EDGE ( 'NONE', *, *, #192, .F. ) ;
#99 = EDGE_LOOP ( 'NONE', ( #2, #227, #24, #177 ) ) ;
#100 = APPROVAL ( #57, 'UNSPECIFIED' ) ;
#101 = APPROVAL_PERSON_ORGANIZATION ( #246, #229, #70 ) ;
#102 = VERTEX_POINT ( 'NONE', #287 ) ;
#103 = ADVANCED_FACE ( 'NONE', ( #114, #59 ), #85, .F. ) ;
#104 = ORIENTED_EDGE ( 'NONE', *, *, #217, .F. ) ;
#105 = ORIENTED_EDGE ( 'NONE', *, *, #316, .F. ) ;
#106 = CC_DESIGN_APPROVAL ( #229, ( #239 ) ) ;
#107 = PERSON_AND_ORGANIZATION ( #86, #212 ) ;
#108 = DIRECTION ( 'NONE',  ( -1.000000000000000000, 0.000000000000000000, 0.000000000000000000 ) ) ;
#109 = COORDINATED_UNIVERSAL_TIME_OFFSET ( 9, 0, .AHEAD. ) ;
#110 = CARTESIAN_POINT ( 'NONE',  ( -7.000000000000000000, 8.572527594031473190E-16, 40.00000000000000000 ) ) ;
#111 = ADVANCED_FACE ( 'NONE', ( #263 ), #185, .F. ) ;
#112 = PERSON_AND_ORGANIZATION_ROLE ( 'creator' ) ;
#113 = DIRECTION ( 'NONE',  ( 0.000000000000000000, 0.000000000000000000, 1.000000000000000000 ) ) ;
#114 = FACE_BOUND ( 'NONE', #280, .T. ) ;
#115 = DIRECTION ( 'NONE',  ( 1.000000000000000000, 0.000000000000000000, 0.000000000000000000 ) ) ;
#116 = CARTESIAN_POINT ( 'NONE',  ( -10.00000000000000000, 1.224646799147353256E-15, 12.00000000000000000 ) ) ;
#117 = DIRECTION ( 'NONE',  ( 1.000000000000000000, 0.000000000000000000, 0.000000000000000000 ) ) ;
#118 = CC_DESIGN_SECURITY_CLASSIFICATION ( #239, ( #156 ) ) ;
#119 = APPROVAL_DATE_TIME ( #189, #229 ) ;
#120 = DIRECTION ( 'NONE',  ( 0.000000000000000000, 0.000000000000000000, 1.000000000000000000 ) ) ;
#121 = ORIENTED_EDGE ( 'NONE', *, *, #157, .T. ) ;
#122 = DIRECTION ( 'NONE',  ( 0.000000000000000000, 0.000000000000000000, 1.000000000000000000 ) ) ;
#123 = MANIFOLD_SOLID_BREP ( 'Imported1', #92 ) ;
#124 = APPROVAL ( #319, 'UNSPECIFIED' ) ;
#125 = CYLINDRICAL_SURFACE ( 'NONE', #257, 10.00000000000000000 ) ;
#126 = CIRCLE ( 'NONE', #277, 7.000000000000000000 ) ;
#127 = ORIENTED_EDGE ( 'NONE', *, *, #43, .F. ) ;
#128 = ORIENTED_EDGE ( 'NONE', *, *, #221, .T. ) ;
#129 = APPROVAL_DATE_TIME ( #61, #124 ) ;
#130 = ADVANCED_FACE ( 'NONE', ( #134 ), #236, .T. ) ;
#131 = DIRECTION ( 'NONE',  ( 0.000000000000000000, 0.000000000000000000, 1.000000000000000000 ) ) ;
#132 = PERSON_AND_ORGANIZATION ( #86, #212 ) ;
#133 = CC_DESIGN_DATE_AND_TIME_ASSIGNMENT ( #162, #37, ( #254 ) ) ;
#134 = FACE_OUTER_BOUND ( 'NONE', #11, .T. ) ;
#135 = DIRECTION ( 'NONE',  ( 1.000000000000000000, 0.000000000000000000, 0.000000000000000000 ) ) ;
#136 = APPROVAL_ROLE ( '' ) ;
#137 = FACE_OUTER_BOUND ( 'NONE', #99, .T. ) ;
#138 = CARTESIAN_POINT ( 'NONE',  ( 0.000000000000000000, 0.000000000000000000, 12.00000000000000000 ) ) ;
#139 = ORIENTED_EDGE ( 'NONE', *, *, #265, .T. ) ;
#140 = AXIS2_PLACEMENT_3D ( 'NONE', #178, #32, #256 ) ;
#141 = COORDINATED_UNIVERSAL_TIME_OFFSET ( 9, 0, .AHEAD. ) ;
#142 = CALENDAR_DATE ( 2021, 25, 10 ) ;
#143 = CARTESIAN_POINT ( 'NONE',  ( 0.000000000000000000, 0.000000000000000000, 0.000000000000000000 ) ) ;
#144 = EDGE_CURVE ( 'NONE', #250, #203, #281, .T. ) ;
#145 = CARTESIAN_POINT ( 'NONE',  ( 0.000000000000000000, 0.000000000000000000, 40.00000000000000000 ) ) ;
#146 = ORIENTED_EDGE ( 'NONE', *, *, #221, .F. ) ;
#147 = EDGE_LOOP ( 'NONE', ( #179, #91, #20, #121 ) ) ;
#148 = AXIS2_PLACEMENT_3D ( 'NONE', #13, #213, #318 ) ;
#149 = ORIENTED_EDGE ( 'NONE', *, *, #31, .T. ) ;
#150 = PRODUCT_DEFINITION_SHAPE ( 'NONE', 'NONE',  #254 ) ;
#151 = LINE ( 'NONE', #206, #325 ) ;
#152 = ORIENTED_EDGE ( 'NONE', *, *, #223, .F. ) ;
#153 = ADVANCED_FACE ( 'NONE', ( #137 ), #242, .F. ) ;
#154 = PERSON_AND_ORGANIZATION ( #86, #212 ) ;
#155 = LINE ( 'NONE', #260, #211 ) ;
#156 = PRODUCT_DEFINITION_FORMATION_WITH_SPECIFIED_SOURCE ( 'ANY', '', #301, .NOT_KNOWN. ) ;
#157 = EDGE_CURVE ( 'NONE', #25, #290, #276, .T. ) ;
#158 = PERSON_AND_ORGANIZATION_ROLE ( 'classification_officer' ) ;
#159 = DIRECTION ( 'NONE',  ( 0.000000000000000000, 0.000000000000000000, -1.000000000000000000 ) ) ;
#160 = CARTESIAN_POINT ( 'NONE',  ( 7.000000000000000000, 0.000000000000000000, 40.00000000000000000 ) ) ;
#161 = AXIS2_PLACEMENT_3D ( 'NONE', #310, #291, #209 ) ;
#162 = DATE_AND_TIME ( #84, #181 ) ;
#163 = DIRECTION ( 'NONE',  ( 1.000000000000000000, 0.000000000000000000, 0.000000000000000000 ) ) ;
#164 = APPROVAL_PERSON_ORGANIZATION ( #309, #100, #136 ) ;
#165 = DIRECTION ( 'NONE',  ( 0.000000000000000000, 0.000000000000000000, 1.000000000000000000 ) ) ;
#166 = CARTESIAN_POINT ( 'NONE',  ( 0.000000000000000000, 0.000000000000000000, 40.00000000000000000 ) ) ;
#167 = EDGE_CURVE ( 'NONE', #252, #196, #272, .T. ) ;
#168 = CARTESIAN_POINT ( 'NONE',  ( -10.00000000000000000, 1.224646799147353256E-15, 32.00000000000000000 ) ) ;
#169 = AXIS2_PLACEMENT_3D ( 'NONE', #208, #79, #285 ) ;
#170 = DIRECTION ( 'NONE',  ( 1.000000000000000000, 0.000000000000000000, 0.000000000000000000 ) ) ;
#171 = LOCAL_TIME ( 8, 51, 18.00000000000000000, #141 ) ;
#172 = CARTESIAN_POINT ( 'NONE',  ( 0.000000000000000000, 0.000000000000000000, 0.000000000000000000 ) ) ;
#173 = DIRECTION ( 'NONE',  ( 1.000000000000000000, 0.000000000000000000, 0.000000000000000000 ) ) ;
#174 = UNCERTAINTY_MEASURE_WITH_UNIT (LENGTH_MEASURE( 1.000000000000000082E-05 ), #299, 'distance_accuracy_value', 'NONE');
#175 = ORIENTED_EDGE ( 'NONE', *, *, #202, .F. ) ;
#176 =( NAMED_UNIT ( * ) SI_UNIT ( $, .STERADIAN. ) SOLID_ANGLE_UNIT ( ) );
#177 = ORIENTED_EDGE ( 'NONE', *, *, #67, .F. ) ;
#178 = CARTESIAN_POINT ( 'NONE',  ( 0.000000000000000000, 0.000000000000000000, 0.000000000000000000 ) ) ;
#179 = ORIENTED_EDGE ( 'NONE', *, *, #31, .F. ) ;
#180 = EDGE_CURVE ( 'NONE', #9, #182, #88, .T. ) ;
#181 = LOCAL_TIME ( 8, 51, 18.00000000000000000, #109 ) ;
#182 = VERTEX_POINT ( 'NONE', #39 ) ;
#183 = DIRECTION ( 'NONE',  ( 1.000000000000000000, 0.000000000000000000, 0.000000000000000000 ) ) ;
#184 = EDGE_CURVE ( 'NONE', #182, #102, #312, .T. ) ;
#185 = CYLINDRICAL_SURFACE ( 'NONE', #253, 10.00000000000000000 ) ;
#186 = CARTESIAN_POINT ( 'NONE',  ( 0.000000000000000000, 0.000000000000000000, 40.00000000000000000 ) ) ;
#187 = CARTESIAN_POINT ( 'NONE',  ( 20.00000000000000000, 0.000000000000000000, 40.00000000000000000 ) ) ;
#188 =( GEOMETRIC_REPRESENTATION_CONTEXT ( 3 ) GLOBAL_UNCERTAINTY_ASSIGNED_CONTEXT ( ( #174 ) ) GLOBAL_UNIT_ASSIGNED_CONTEXT ( ( #299, #30, #176 ) ) REPRESENTATION_CONTEXT ( 'NONE', 'WORKASPACE' ) );
#189 = DATE_AND_TIME ( #142, #171 ) ;
#190 = FACE_BOUND ( 'NONE', #42, .T. ) ;
#191 = VERTEX_POINT ( 'NONE', #56 ) ;
#192 = EDGE_CURVE ( 'NONE', #203, #25, #155, .T. ) ;
#193 = ORIENTED_EDGE ( 'NONE', *, *, #157, .F. ) ;
#194 = AXIS2_PLACEMENT_3D ( 'NONE', #313, #237, #234 ) ;
#195 = APPROVAL_PERSON_ORGANIZATION ( #78, #124, #317 ) ;
#196 = VERTEX_POINT ( 'NONE', #72 ) ;
#197 = APPLICATION_CONTEXT ( 'configuration controlled 3d designs of mechanical parts and assemblies' ) ;
#198 = PERSON_AND_ORGANIZATION_ROLE ( 'design_owner' ) ;
#199 = ORIENTED_EDGE ( 'NONE', *, *, #180, .F. ) ;
#200 = FACE_OUTER_BOUND ( 'NONE', #284, .T. ) ;
#201 = LOCAL_TIME ( 8, 51, 18.00000000000000000, #33 ) ;
#202 = EDGE_CURVE ( 'NONE', #328, #102, #90, .T. ) ;
#203 = VERTEX_POINT ( 'NONE', #294 ) ;
#204 = CARTESIAN_POINT ( 'NONE',  ( 0.000000000000000000, 0.000000000000000000, 0.000000000000000000 ) ) ;
#205 = EDGE_CURVE ( 'NONE', #203, #250, #273, .T. ) ;
#206 = CARTESIAN_POINT ( 'NONE',  ( -10.00000000000000000, 1.224646799147353256E-15, 40.00000000000000000 ) ) ;
#207 = SECURITY_CLASSIFICATION_LEVEL ( 'unclassified' ) ;
#208 = CARTESIAN_POINT ( 'NONE',  ( 0.000000000000000000, 0.000000000000000000, 32.00000000000000000 ) ) ;
#209 = DIRECTION ( 'NONE',  ( 1.000000000000000000, 0.000000000000000000, 0.000000000000000000 ) ) ;
#210 = PERSON_AND_ORGANIZATION_ROLE ( 'design_supplier' ) ;
#211 = VECTOR ( 'NONE', #34, 1000.000000000000000 ) ;
#212 = ORGANIZATION ( 'UNSPECIFIED', 'UNSPECIFIED', '' ) ;
#213 = DIRECTION ( 'NONE',  ( 0.000000000000000000, 0.000000000000000000, 1.000000000000000000 ) ) ;
#214 = DATE_AND_TIME ( #15, #58 ) ;
#215 = CC_DESIGN_APPROVAL ( #100, ( #156 ) ) ;
#216 = CARTESIAN_POINT ( 'NONE',  ( 0.000000000000000000, 0.000000000000000000, 12.00000000000000000 ) ) ;
#217 = EDGE_CURVE ( 'NONE', #102, #182, #76, .T. ) ;
#218 = EDGE_LOOP ( 'NONE', ( #249, #45 ) ) ;
#219 = CARTESIAN_POINT ( 'NONE',  ( 7.000000000000000000, 0.000000000000000000, 0.000000000000000000 ) ) ;
#220 = EDGE_LOOP ( 'NONE', ( #127, #146, #29, #282 ) ) ;
#221 = EDGE_CURVE ( 'NONE', #296, #191, #126, .T. ) ;
#222 = CARTESIAN_POINT ( 'NONE',  ( 0.000000000000000000, 0.000000000000000000, 32.00000000000000000 ) ) ;
#223 = EDGE_CURVE ( 'NONE', #196, #252, #329, .T. ) ;
#224 = AXIS2_PLACEMENT_3D ( 'NONE', #143, #275, #49 ) ;
#225 = CIRCLE ( 'NONE', #161, 10.00000000000000000 ) ;
#226 = EDGE_CURVE ( 'NONE', #191, #296, #21, .T. ) ;
#227 = ORIENTED_EDGE ( 'NONE', *, *, #43, .T. ) ;
#228 = AXIS2_PLACEMENT_3D ( 'NONE', #138, #120, #93 ) ;
#229 = APPROVAL ( #320, 'UNSPECIFIED' ) ;
#230 = CARTESIAN_POINT ( 'NONE',  ( 0.000000000000000000, 0.000000000000000000, 40.00000000000000000 ) ) ;
#231 = PERSON_AND_ORGANIZATION_ROLE ( 'creator' ) ;
#232 = EDGE_LOOP ( 'NONE', ( #28, #269 ) ) ;
#233 = CALENDAR_DATE ( 2021, 25, 10 ) ;
#234 = DIRECTION ( 'NONE',  ( 1.000000000000000000, 0.000000000000000000, 0.000000000000000000 ) ) ;
#235 = DATE_AND_TIME ( #262, #6 ) ;
#236 = CYLINDRICAL_SURFACE ( 'NONE', #148, 20.00000000000000000 ) ;
#237 = DIRECTION ( 'NONE',  ( 0.000000000000000000, 0.000000000000000000, 1.000000000000000000 ) ) ;
#238 = ADVANCED_FACE ( 'NONE', ( #274 ), #48, .F. ) ;
#239 = SECURITY_CLASSIFICATION ( '', '', #207 ) ;
#240 = COORDINATED_UNIVERSAL_TIME_OFFSET ( 9, 0, .AHEAD. ) ;
#241 = CARTESIAN_POINT ( 'NONE',  ( 0.000000000000000000, 0.000000000000000000, 12.00000000000000000 ) ) ;
#242 = CYLINDRICAL_SURFACE ( 'NONE', #194, 7.000000000000000000 ) ;
#243 = AXIS2_PLACEMENT_3D ( 'NONE', #230, #77, #183 ) ;
#244 = AXIS2_PLACEMENT_3D ( 'NONE', #216, #323, #173 ) ;
#245 = DIRECTION ( 'NONE',  ( 1.000000000000000000, 0.000000000000000000, 0.000000000000000000 ) ) ;
#246 = PERSON_AND_ORGANIZATION ( #86, #212 ) ;
#247 = PLANE ( 'NONE',  #288 ) ;
#248 = DIRECTION ( 'NONE',  ( 0.000000000000000000, 0.000000000000000000, 1.000000000000000000 ) ) ;
#249 = ORIENTED_EDGE ( 'NONE', *, *, #184, .T. ) ;
#250 = VERTEX_POINT ( 'NONE', #116 ) ;
#251 = APPLICATION_PROTOCOL_DEFINITION ( 'international standard', 'config_control_design', 1994, #5 ) ;
#252 = VERTEX_POINT ( 'NONE', #321 ) ;
#253 = AXIS2_PLACEMENT_3D ( 'NONE', #186, #35, #163 ) ;
#254 = PRODUCT_DEFINITION ( 'UNKNOWN', '', #156, #63 ) ;
#255 = VECTOR ( 'NONE', #122, 1000.000000000000000 ) ;
#256 = DIRECTION ( 'NONE',  ( 1.000000000000000000, 0.000000000000000000, 0.000000000000000000 ) ) ;
#257 = AXIS2_PLACEMENT_3D ( 'NONE', #166, #268, #41 ) ;
#258 = EDGE_LOOP ( 'NONE', ( #128, #271 ) ) ;
#259 = COORDINATED_UNIVERSAL_TIME_OFFSET ( 9, 0, .AHEAD. ) ;
#260 = CARTESIAN_POINT ( 'NONE',  ( 10.00000000000000000, 0.000000000000000000, 40.00000000000000000 ) ) ;
#261 = AXIS2_PLACEMENT_3D ( 'NONE', #204, #304, #54 ) ;
#262 = CALENDAR_DATE ( 2021, 25, 10 ) ;
#263 = FACE_OUTER_BOUND ( 'NONE', #302, .T. ) ;
#264 = CARTESIAN_POINT ( 'NONE',  ( 0.000000000000000000, 0.000000000000000000, 12.00000000000000000 ) ) ;
#265 = EDGE_CURVE ( 'NONE', #9, #328, #322, .T. ) ;
#266 = AXIS2_PLACEMENT_3D ( 'NONE', #222, #18, #19 ) ;
#267 = LINE ( 'NONE', #110, #60 ) ;
#268 = DIRECTION ( 'NONE',  ( 0.000000000000000000, 0.000000000000000000, 1.000000000000000000 ) ) ;
#269 = ORIENTED_EDGE ( 'NONE', *, *, #144, .T. ) ;
#270 = FACE_OUTER_BOUND ( 'NONE', #283, .T. ) ;
#271 = ORIENTED_EDGE ( 'NONE', *, *, #226, .T. ) ;
#272 = CIRCLE ( 'NONE', #314, 7.000000000000000000 ) ;
#273 = CIRCLE ( 'NONE', #228, 10.00000000000000000 ) ;
#274 = FACE_OUTER_BOUND ( 'NONE', #220, .T. ) ;
#275 = DIRECTION ( 'NONE',  ( 0.000000000000000000, 0.000000000000000000, 1.000000000000000000 ) ) ;
#276 = CIRCLE ( 'NONE', #81, 10.00000000000000000 ) ;
#277 = AXIS2_PLACEMENT_3D ( 'NONE', #172, #327, #117 ) ;
#278 = ORIENTED_EDGE ( 'NONE', *, *, #47, .F. ) ;
#279 = ADVANCED_FACE ( 'NONE', ( #96 ), #125, .F. ) ;
#280 = EDGE_LOOP ( 'NONE', ( #7, #152 ) ) ;
#281 = CIRCLE ( 'NONE', #303, 10.00000000000000000 ) ;
#282 = ORIENTED_EDGE ( 'NONE', *, *, #167, .T. ) ;
#283 = EDGE_LOOP ( 'NONE', ( #55, #105 ) ) ;
#284 = EDGE_LOOP ( 'NONE', ( #175, #50, #297, #104 ) ) ;
#285 = DIRECTION ( 'NONE',  ( 1.000000000000000000, 0.000000000000000000, 0.000000000000000000 ) ) ;
#286 = ADVANCED_FACE ( 'NONE', ( #190, #292 ), #247, .F. ) ;
#287 = CARTESIAN_POINT ( 'NONE',  ( -20.00000000000000000, 2.449293598294706513E-15, 32.00000000000000000 ) ) ;
#288 = AXIS2_PLACEMENT_3D ( 'NONE', #1, #66, #326 ) ;
#289 = CC_DESIGN_PERSON_AND_ORGANIZATION_ASSIGNMENT ( #154, #158, ( #239 ) ) ;
#290 = VERTEX_POINT ( 'NONE', #168 ) ;
#291 = DIRECTION ( 'NONE',  ( 0.000000000000000000, 0.000000000000000000, 1.000000000000000000 ) ) ;
#292 = FACE_OUTER_BOUND ( 'NONE', #218, .T. ) ;
#293 = ADVANCED_FACE ( 'NONE', ( #270, #44 ), #22, .F. ) ;
#294 = CARTESIAN_POINT ( 'NONE',  ( 10.00000000000000000, 0.000000000000000000, 12.00000000000000000 ) ) ;
#295 = ORIENTED_EDGE ( 'NONE', *, *, #184, .F. ) ;
#296 = VERTEX_POINT ( 'NONE', #46 ) ;
#297 = ORIENTED_EDGE ( 'NONE', *, *, #180, .T. ) ;
#298 = AXIS2_PLACEMENT_3D ( 'NONE', #219, #68, #170 ) ;
#299 =( LENGTH_UNIT ( ) NAMED_UNIT ( * ) SI_UNIT ( .MILLI., .METRE. ) );
#300 = CYLINDRICAL_SURFACE ( 'NONE', #243, 20.00000000000000000 ) ;
#301 = PRODUCT ( 'bj300-12032', 'bj300-12032', '', ( #53 ) ) ;
#302 = EDGE_LOOP ( 'NONE', ( #12, #149, #73, #98 ) ) ;
#303 = AXIS2_PLACEMENT_3D ( 'NONE', #264, #113, #135 ) ;
#304 = DIRECTION ( 'NONE',  ( 0.000000000000000000, 0.000000000000000000, 1.000000000000000000 ) ) ;
#305 = CIRCLE ( 'NONE', #140, 20.00000000000000000 ) ;
#306 = DIRECTION ( 'NONE',  ( 0.000000000000000000, 0.000000000000000000, 1.000000000000000000 ) ) ;
#307 = APPROVAL_DATE_TIME ( #214, #100 ) ;
#308 = CARTESIAN_POINT ( 'NONE',  ( 0.000000000000000000, 0.000000000000000000, 32.00000000000000000 ) ) ;
#309 = PERSON_AND_ORGANIZATION ( #86, #212 ) ;
#310 = CARTESIAN_POINT ( 'NONE',  ( 0.000000000000000000, 0.000000000000000000, 32.00000000000000000 ) ) ;
#311 = CC_DESIGN_PERSON_AND_ORGANIZATION_ASSIGNMENT ( #97, #198, ( #301 ) ) ;
#312 = CIRCLE ( 'NONE', #169, 20.00000000000000000 ) ;
#313 = CARTESIAN_POINT ( 'NONE',  ( 0.000000000000000000, 0.000000000000000000, 40.00000000000000000 ) ) ;
#314 = AXIS2_PLACEMENT_3D ( 'NONE', #241, #16, #115 ) ;
#315 = CC_DESIGN_APPROVAL ( #124, ( #254 ) ) ;
#316 = EDGE_CURVE ( 'NONE', #328, #9, #305, .T. ) ;
#317 = APPROVAL_ROLE ( '' ) ;
#318 = DIRECTION ( 'NONE',  ( 1.000000000000000000, 0.000000000000000000, 0.000000000000000000 ) ) ;
#319 = APPROVAL_STATUS ( 'not_yet_approved' ) ;
#320 = APPROVAL_STATUS ( 'not_yet_approved' ) ;
#321 = CARTESIAN_POINT ( 'NONE',  ( 7.000000000000000000, 0.000000000000000000, 12.00000000000000000 ) ) ;
#322 = CIRCLE ( 'NONE', #82, 20.00000000000000000 ) ;
#323 = DIRECTION ( 'NONE',  ( 0.000000000000000000, 0.000000000000000000, 1.000000000000000000 ) ) ;
#324 = DATE_TIME_ROLE ( 'classification_date' ) ;
#325 = VECTOR ( 'NONE', #306, 1000.000000000000000 ) ;
#326 = DIRECTION ( 'NONE',  ( -1.000000000000000000, 0.000000000000000000, 0.000000000000000000 ) ) ;
#327 = DIRECTION ( 'NONE',  ( 0.000000000000000000, 0.000000000000000000, 1.000000000000000000 ) ) ;
#328 = VERTEX_POINT ( 'NONE', #8 ) ;
#329 = CIRCLE ( 'NONE', #244, 7.000000000000000000 ) ;
ENDSEC;
END-ISO-10303-21;
