ISO-10303-21;
HEADER;
FILE_DESCRIPTION (( 'STEP AP203' ),
    '1' );
FILE_NAME ('bj400-16050.STEP',
    '2021-10-24T23:52:11',
    ( '' ),
    ( '' ),
    'SwSTEP 2.0',
    'SolidWorks 2020',
    '' );
FILE_SCHEMA (( 'CONFIG_CONTROL_DESIGN' ));
ENDSEC;

DATA;
#1 = LINE ( 'NONE', #59, #287 ) ;
#2 = PRODUCT_DEFINITION_SHAPE ( 'NONE', 'NONE',  #85 ) ;
#3 = APPROVAL_PERSON_ORGANIZATION ( #285, #211, #214 ) ;
#4 = ADVANCED_FACE ( 'NONE', ( #212 ), #306, .T. ) ;
#5 =( NAMED_UNIT ( * ) PLANE_ANGLE_UNIT ( ) SI_UNIT ( $, .RADIAN. ) );
#6 = ORIENTED_EDGE ( 'NONE', *, *, #181, .F. ) ;
#7 = DIRECTION ( 'NONE',  ( 1.000000000000000000, 0.000000000000000000, 0.000000000000000000 ) ) ;
#8 = CARTESIAN_POINT ( 'NONE',  ( 0.000000000000000000, 0.000000000000000000, 0.000000000000000000 ) ) ;
#9 = ORIENTED_EDGE ( 'NONE', *, *, #297, .T. ) ;
#10 = APPROVAL_PERSON_ORGANIZATION ( #286, #44, #88 ) ;
#11 = ADVANCED_FACE ( 'NONE', ( #161 ), #29, .F. ) ;
#12 =( LENGTH_UNIT ( ) NAMED_UNIT ( * ) SI_UNIT ( .MILLI., .METRE. ) );
#13 = COORDINATED_UNIVERSAL_TIME_OFFSET ( 9, 0, .AHEAD. ) ;
#14 = PERSON_AND_ORGANIZATION_ROLE ( 'design_owner' ) ;
#15 = AXIS2_PLACEMENT_3D ( 'NONE', #282, #83, #255 ) ;
#16 = MECHANICAL_CONTEXT ( 'NONE', #40, 'mechanical' ) ;
#17 = DIRECTION ( 'NONE',  ( 1.000000000000000000, 0.000000000000000000, 0.000000000000000000 ) ) ;
#18 = CARTESIAN_POINT ( 'NONE',  ( 0.000000000000000000, 0.000000000000000000, 40.00000000000000000 ) ) ;
#19 = AXIS2_PLACEMENT_3D ( 'NONE', #227, #199, #270 ) ;
#20 = ORIENTED_EDGE ( 'NONE', *, *, #34, .F. ) ;
#21 = PLANE ( 'NONE',  #153 ) ;
#22 = ORIENTED_EDGE ( 'NONE', *, *, #213, .T. ) ;
#23 = ORIENTED_EDGE ( 'NONE', *, *, #207, .F. ) ;
#24 = DIRECTION ( 'NONE',  ( 1.000000000000000000, 0.000000000000000000, 0.000000000000000000 ) ) ;
#25 = ORGANIZATION ( 'UNSPECIFIED', 'UNSPECIFIED', '' ) ;
#26 = AXIS2_PLACEMENT_3D ( 'NONE', #281, #54, #135 ) ;
#27 = CYLINDRICAL_SURFACE ( 'NONE', #273, 13.00000000000000000 ) ;
#28 = EDGE_LOOP ( 'NONE', ( #256, #325 ) ) ;
#29 = CYLINDRICAL_SURFACE ( 'NONE', #196, 8.000000000000000000 ) ;
#30 = CARTESIAN_POINT ( 'NONE',  ( -25.00000000000000000, 3.061616997868383043E-15, 0.000000000000000000 ) ) ;
#31 = CYLINDRICAL_SURFACE ( 'NONE', #91, 13.00000000000000000 ) ;
#32 = ORIENTED_EDGE ( 'NONE', *, *, #327, .T. ) ;
#33 = PRODUCT ( 'bj400-16050', 'bj400-16050', '', ( #16 ) ) ;
#34 = EDGE_CURVE ( 'NONE', #176, #48, #52, .T. ) ;
#35 = ORIENTED_EDGE ( 'NONE', *, *, #62, .F. ) ;
#36 = CIRCLE ( 'NONE', #19, 8.000000000000000000 ) ;
#37 = PERSON_AND_ORGANIZATION ( #159, #25 ) ;
#38 = SECURITY_CLASSIFICATION_LEVEL ( 'unclassified' ) ;
#39 = APPROVAL_STATUS ( 'not_yet_approved' ) ;
#40 = APPLICATION_CONTEXT ( 'configuration controlled 3d designs of mechanical parts and assemblies' ) ;
#41 = PERSON_AND_ORGANIZATION_ROLE ( 'creator' ) ;
#42 = CIRCLE ( 'NONE', #290, 8.000000000000000000 ) ;
#43 = LINE ( 'NONE', #314, #163 ) ;
#44 = APPROVAL ( #236, 'UNSPECIFIED' ) ;
#45 = DIRECTION ( 'NONE',  ( 0.000000000000000000, 0.000000000000000000, 1.000000000000000000 ) ) ;
#46 = DIRECTION ( 'NONE',  ( 0.000000000000000000, 0.000000000000000000, 1.000000000000000000 ) ) ;
#47 = VECTOR ( 'NONE', #134, 1000.000000000000000 ) ;
#48 = VERTEX_POINT ( 'NONE', #218 ) ;
#49 = DIRECTION ( 'NONE',  ( 0.000000000000000000, 0.000000000000000000, 1.000000000000000000 ) ) ;
#50 = DIRECTION ( 'NONE',  ( 1.000000000000000000, 0.000000000000000000, 0.000000000000000000 ) ) ;
#51 = VERTEX_POINT ( 'NONE', #241 ) ;
#52 = CIRCLE ( 'NONE', #106, 13.00000000000000000 ) ;
#53 = DIRECTION ( 'NONE',  ( 0.000000000000000000, 0.000000000000000000, 1.000000000000000000 ) ) ;
#54 = DIRECTION ( 'NONE',  ( 0.000000000000000000, 0.000000000000000000, 1.000000000000000000 ) ) ;
#55 = ORIENTED_EDGE ( 'NONE', *, *, #70, .T. ) ;
#56 = DIRECTION ( 'NONE',  ( 0.000000000000000000, 0.000000000000000000, 1.000000000000000000 ) ) ;
#57 = CIRCLE ( 'NONE', #141, 25.00000000000000000 ) ;
#58 = EDGE_CURVE ( 'NONE', #112, #103, #94, .T. ) ;
#59 = CARTESIAN_POINT ( 'NONE',  ( -13.00000000000000000, 1.592040838891559095E-15, 40.00000000000000000 ) ) ;
#60 = ORIENTED_EDGE ( 'NONE', *, *, #324, .T. ) ;
#61 = DIRECTION ( 'NONE',  ( 1.000000000000000000, 0.000000000000000000, 0.000000000000000000 ) ) ;
#62 = EDGE_CURVE ( 'NONE', #109, #123, #312, .T. ) ;
#63 = LOCAL_TIME ( 8, 52, 11.00000000000000000, #13 ) ;
#64 = DATE_AND_TIME ( #234, #309 ) ;
#65 = APPROVAL ( #39, 'UNSPECIFIED' ) ;
#66 = CARTESIAN_POINT ( 'NONE',  ( 13.00000000000000000, 0.000000000000000000, 50.00000000000000000 ) ) ;
#67 = AXIS2_PLACEMENT_3D ( 'NONE', #276, #250, #24 ) ;
#68 = CALENDAR_DATE ( 2021, 25, 10 ) ;
#69 = DIRECTION ( 'NONE',  ( 0.000000000000000000, 0.000000000000000000, 1.000000000000000000 ) ) ;
#70 = EDGE_CURVE ( 'NONE', #123, #259, #43, .T. ) ;
#71 = DIRECTION ( 'NONE',  ( 0.000000000000000000, 0.000000000000000000, 1.000000000000000000 ) ) ;
#72 = FACE_OUTER_BOUND ( 'NONE', #151, .T. ) ;
#73 = VERTEX_POINT ( 'NONE', #66 ) ;
#74 = CARTESIAN_POINT ( 'NONE',  ( 8.000000000000000000, 0.000000000000000000, 15.00000000000000000 ) ) ;
#75 = ORIENTED_EDGE ( 'NONE', *, *, #162, .T. ) ;
#76 = APPLICATION_CONTEXT ( 'configuration controlled 3d designs of mechanical parts and assemblies' ) ;
#77 = CARTESIAN_POINT ( 'NONE',  ( 13.00000000000000000, 0.000000000000000000, 40.00000000000000000 ) ) ;
#78 = VERTEX_POINT ( 'NONE', #215 ) ;
#79 = DESIGN_CONTEXT ( 'detailed design', #76, 'design' ) ;
#80 = ORIENTED_EDGE ( 'NONE', *, *, #34, .T. ) ;
#81 = DIRECTION ( 'NONE',  ( 0.000000000000000000, 0.000000000000000000, 1.000000000000000000 ) ) ;
#82 = CIRCLE ( 'NONE', #136, 13.00000000000000000 ) ;
#83 = DIRECTION ( 'NONE',  ( 0.000000000000000000, 0.000000000000000000, 1.000000000000000000 ) ) ;
#84 = CARTESIAN_POINT ( 'NONE',  ( 0.000000000000000000, 0.000000000000000000, 40.00000000000000000 ) ) ;
#85 = PRODUCT_DEFINITION ( 'UNKNOWN', '', #177, #79 ) ;
#86 = APPROVAL_PERSON_ORGANIZATION ( #193, #65, #240 ) ;
#87 = EDGE_LOOP ( 'NONE', ( #20, #60, #224, #272 ) ) ;
#88 = APPROVAL_ROLE ( '' ) ;
#89 = PRODUCT_RELATED_PRODUCT_CATEGORY ( 'detail', '', ( #33 ) ) ;
#90 = CARTESIAN_POINT ( 'NONE',  ( 8.000000000000000000, 0.000000000000000000, 40.00000000000000000 ) ) ;
#91 = AXIS2_PLACEMENT_3D ( 'NONE', #108, #209, #187 ) ;
#92 = PERSON_AND_ORGANIZATION ( #159, #25 ) ;
#93 = EDGE_CURVE ( 'NONE', #109, #140, #145, .T. ) ;
#94 = CIRCLE ( 'NONE', #277, 25.00000000000000000 ) ;
#95 = ADVANCED_FACE ( 'NONE', ( #148, #97 ), #144, .F. ) ;
#96 = DIRECTION ( 'NONE',  ( 0.000000000000000000, 0.000000000000000000, 1.000000000000000000 ) ) ;
#97 = FACE_OUTER_BOUND ( 'NONE', #133, .T. ) ;
#98 = CARTESIAN_POINT ( 'NONE',  ( 0.000000000000000000, 0.000000000000000000, 50.00000000000000000 ) ) ;
#99 = EDGE_LOOP ( 'NONE', ( #280, #75, #101, #233 ) ) ;
#100 = CARTESIAN_POINT ( 'NONE',  ( 0.000000000000000000, 0.000000000000000000, 15.00000000000000000 ) ) ;
#101 = ORIENTED_EDGE ( 'NONE', *, *, #220, .T. ) ;
#102 = CARTESIAN_POINT ( 'NONE',  ( -8.000000000000000000, 9.797174393178825657E-16, 0.000000000000000000 ) ) ;
#103 = VERTEX_POINT ( 'NONE', #307 ) ;
#104 = DIRECTION ( 'NONE',  ( 1.000000000000000000, 0.000000000000000000, 0.000000000000000000 ) ) ;
#105 = ORIENTED_EDGE ( 'NONE', *, *, #327, .F. ) ;
#106 = AXIS2_PLACEMENT_3D ( 'NONE', #302, #118, #238 ) ;
#107 = DIRECTION ( 'NONE',  ( -1.000000000000000000, 0.000000000000000000, 0.000000000000000000 ) ) ;
#108 = CARTESIAN_POINT ( 'NONE',  ( 0.000000000000000000, 0.000000000000000000, 40.00000000000000000 ) ) ;
#109 = VERTEX_POINT ( 'NONE', #237 ) ;
#110 =( NAMED_UNIT ( * ) SI_UNIT ( $, .STERADIAN. ) SOLID_ANGLE_UNIT ( ) );
#111 = ADVANCED_FACE ( 'NONE', ( #115, #168 ), #278, .F. ) ;
#112 = VERTEX_POINT ( 'NONE', #328 ) ;
#113 = DIRECTION ( 'NONE',  ( 0.000000000000000000, 0.000000000000000000, 1.000000000000000000 ) ) ;
#114 = PERSON_AND_ORGANIZATION_ROLE ( 'design_supplier' ) ;
#115 = FACE_BOUND ( 'NONE', #275, .T. ) ;
#116 = AXIS2_PLACEMENT_3D ( 'NONE', #231, #191, #7 ) ;
#117 = DATE_AND_TIME ( #68, #294 ) ;
#118 = DIRECTION ( 'NONE',  ( 0.000000000000000000, 0.000000000000000000, 1.000000000000000000 ) ) ;
#119 = COORDINATED_UNIVERSAL_TIME_OFFSET ( 9, 0, .AHEAD. ) ;
#120 = VECTOR ( 'NONE', #69, 1000.000000000000000 ) ;
#121 = AXIS2_PLACEMENT_3D ( 'NONE', #271, #46, #246 ) ;
#122 = FACE_OUTER_BOUND ( 'NONE', #127, .T. ) ;
#123 = VERTEX_POINT ( 'NONE', #102 ) ;
#124 = CC_DESIGN_PERSON_AND_ORGANIZATION_ASSIGNMENT ( #37, #114, ( #177 ) ) ;
#125 = SHAPE_DEFINITION_REPRESENTATION ( #2, #204 ) ;
#126 = CARTESIAN_POINT ( 'NONE',  ( 8.000000000000000000, 0.000000000000000000, 0.000000000000000000 ) ) ;
#127 = EDGE_LOOP ( 'NONE', ( #105, #139 ) ) ;
#128 = DIRECTION ( 'NONE',  ( 1.000000000000000000, 0.000000000000000000, 0.000000000000000000 ) ) ;
#129 = ORIENTED_EDGE ( 'NONE', *, *, #324, .F. ) ;
#130 = ORIENTED_EDGE ( 'NONE', *, *, #318, .F. ) ;
#131 = ADVANCED_FACE ( 'NONE', ( #122, #202 ), #21, .F. ) ;
#132 = DIRECTION ( 'NONE',  ( 0.000000000000000000, 0.000000000000000000, 1.000000000000000000 ) ) ;
#133 = EDGE_LOOP ( 'NONE', ( #157, #183 ) ) ;
#134 = DIRECTION ( 'NONE',  ( 0.000000000000000000, 0.000000000000000000, 1.000000000000000000 ) ) ;
#135 = DIRECTION ( 'NONE',  ( 1.000000000000000000, 0.000000000000000000, 0.000000000000000000 ) ) ;
#136 = AXIS2_PLACEMENT_3D ( 'NONE', #295, #49, #154 ) ;
#137 = FACE_OUTER_BOUND ( 'NONE', #87, .T. ) ;
#138 = DIRECTION ( 'NONE',  ( 0.000000000000000000, 0.000000000000000000, 1.000000000000000000 ) ) ;
#139 = ORIENTED_EDGE ( 'NONE', *, *, #162, .F. ) ;
#140 = VERTEX_POINT ( 'NONE', #74 ) ;
#141 = AXIS2_PLACEMENT_3D ( 'NONE', #206, #223, #128 ) ;
#142 = CIRCLE ( 'NONE', #116, 25.00000000000000000 ) ;
#143 = PERSON_AND_ORGANIZATION ( #159, #25 ) ;
#144 = PLANE ( 'NONE',  #205 ) ;
#145 = LINE ( 'NONE', #90, #120 ) ;
#146 = CC_DESIGN_APPROVAL ( #44, ( #85 ) ) ;
#147 = DATE_TIME_ROLE ( 'classification_date' ) ;
#148 = FACE_BOUND ( 'NONE', #279, .T. ) ;
#149 = FACE_OUTER_BOUND ( 'NONE', #322, .T. ) ;
#150 = CC_DESIGN_PERSON_AND_ORGANIZATION_ASSIGNMENT ( #267, #311, ( #177 ) ) ;
#151 = EDGE_LOOP ( 'NONE', ( #320, #35, #230, #178 ) ) ;
#152 = LINE ( 'NONE', #77, #165 ) ;
#153 = AXIS2_PLACEMENT_3D ( 'NONE', #126, #53, #274 ) ;
#154 = DIRECTION ( 'NONE',  ( 1.000000000000000000, 0.000000000000000000, 0.000000000000000000 ) ) ;
#155 = CARTESIAN_POINT ( 'NONE',  ( -13.00000000000000000, 1.592040838891559095E-15, 15.00000000000000000 ) ) ;
#156 = ORIENTED_EDGE ( 'NONE', *, *, #186, .F. ) ;
#157 = ORIENTED_EDGE ( 'NONE', *, *, #318, .T. ) ;
#158 = CARTESIAN_POINT ( 'NONE',  ( -25.00000000000000000, 3.061616997868383043E-15, 40.00000000000000000 ) ) ;
#159 = PERSON ( 'UNSPECIFIED', 'UNSPECIFIED', 'UNSPECIFIED', ('UNSPECIFIED'), ('UNSPECIFIED'), ('UNSPECIFIED') ) ;
#160 = SECURITY_CLASSIFICATION ( '', '', #38 ) ;
#161 = FACE_OUTER_BOUND ( 'NONE', #253, .T. ) ;
#162 = EDGE_CURVE ( 'NONE', #296, #51, #57, .T. ) ;
#163 = VECTOR ( 'NONE', #96, 1000.000000000000000 ) ;
#164 = CALENDAR_DATE ( 2021, 25, 10 ) ;
#165 = VECTOR ( 'NONE', #321, 1000.000000000000000 ) ;
#166 = DIRECTION ( 'NONE',  ( 0.000000000000000000, 0.000000000000000000, -1.000000000000000000 ) ) ;
#167 = COORDINATED_UNIVERSAL_TIME_OFFSET ( 9, 0, .AHEAD. ) ;
#168 = FACE_OUTER_BOUND ( 'NONE', #180, .T. ) ;
#169 = DIRECTION ( 'NONE',  ( 1.000000000000000000, 0.000000000000000000, 0.000000000000000000 ) ) ;
#170 = UNCERTAINTY_MEASURE_WITH_UNIT (LENGTH_MEASURE( 1.000000000000000082E-05 ), #12, 'distance_accuracy_value', 'NONE');
#171 = DATE_TIME_ROLE ( 'creation_date' ) ;
#172 = DIRECTION ( 'NONE',  ( 0.000000000000000000, 0.000000000000000000, 1.000000000000000000 ) ) ;
#173 = DIRECTION ( 'NONE',  ( 1.000000000000000000, 0.000000000000000000, 0.000000000000000000 ) ) ;
#174 = CC_DESIGN_DATE_AND_TIME_ASSIGNMENT ( #117, #171, ( #85 ) ) ;
#175 = CYLINDRICAL_SURFACE ( 'NONE', #121, 8.000000000000000000 ) ;
#176 = VERTEX_POINT ( 'NONE', #155 ) ;
#177 = PRODUCT_DEFINITION_FORMATION_WITH_SPECIFIED_SOURCE ( 'ANY', '', #33, .NOT_KNOWN. ) ;
#178 = ORIENTED_EDGE ( 'NONE', *, *, #219, .T. ) ;
#179 = FACE_OUTER_BOUND ( 'NONE', #304, .T. ) ;
#180 = EDGE_LOOP ( 'NONE', ( #190, #80 ) ) ;
#181 = EDGE_CURVE ( 'NONE', #73, #78, #252, .T. ) ;
#182 = CARTESIAN_POINT ( 'NONE',  ( 0.000000000000000000, 0.000000000000000000, 40.00000000000000000 ) ) ;
#183 = ORIENTED_EDGE ( 'NONE', *, *, #58, .T. ) ;
#184 = CIRCLE ( 'NONE', #26, 25.00000000000000000 ) ;
#185 = ORIENTED_EDGE ( 'NONE', *, *, #213, .F. ) ;
#186 = EDGE_CURVE ( 'NONE', #48, #176, #82, .T. ) ;
#187 = DIRECTION ( 'NONE',  ( 1.000000000000000000, 0.000000000000000000, 0.000000000000000000 ) ) ;
#188 = ORIENTED_EDGE ( 'NONE', *, *, #219, .F. ) ;
#189 = LOCAL_TIME ( 8, 52, 11.00000000000000000, #119 ) ;
#190 = ORIENTED_EDGE ( 'NONE', *, *, #186, .T. ) ;
#191 = DIRECTION ( 'NONE',  ( 0.000000000000000000, 0.000000000000000000, 1.000000000000000000 ) ) ;
#192 = COORDINATED_UNIVERSAL_TIME_OFFSET ( 9, 0, .AHEAD. ) ;
#193 = PERSON_AND_ORGANIZATION ( #159, #25 ) ;
#194 = EDGE_CURVE ( 'NONE', #48, #73, #152, .T. ) ;
#195 = APPROVAL_STATUS ( 'not_yet_approved' ) ;
#196 = AXIS2_PLACEMENT_3D ( 'NONE', #229, #138, #208 ) ;
#197 = CC_DESIGN_SECURITY_CLASSIFICATION ( #160, ( #177 ) ) ;
#198 = CALENDAR_DATE ( 2021, 25, 10 ) ;
#199 = DIRECTION ( 'NONE',  ( 0.000000000000000000, 0.000000000000000000, 1.000000000000000000 ) ) ;
#200 = CARTESIAN_POINT ( 'NONE',  ( 25.00000000000000000, 0.000000000000000000, 40.00000000000000000 ) ) ;
#201 = ADVANCED_FACE ( 'NONE', ( #179 ), #27, .F. ) ;
#202 = FACE_BOUND ( 'NONE', #28, .T. ) ;
#203 = CARTESIAN_POINT ( 'NONE',  ( 13.00000000000000000, 0.000000000000000000, 15.00000000000000000 ) ) ;
#204 = ADVANCED_BREP_SHAPE_REPRESENTATION ( 'bj400-16050', ( #260, #210 ), #262 ) ;
#205 = AXIS2_PLACEMENT_3D ( 'NONE', #265, #166, #310 ) ;
#206 = CARTESIAN_POINT ( 'NONE',  ( 0.000000000000000000, 0.000000000000000000, 0.000000000000000000 ) ) ;
#207 = EDGE_CURVE ( 'NONE', #78, #73, #301, .T. ) ;
#208 = DIRECTION ( 'NONE',  ( 1.000000000000000000, 0.000000000000000000, 0.000000000000000000 ) ) ;
#209 = DIRECTION ( 'NONE',  ( 0.000000000000000000, 0.000000000000000000, 1.000000000000000000 ) ) ;
#210 = AXIS2_PLACEMENT_3D ( 'NONE', #8, #81, #169 ) ;
#211 = APPROVAL ( #195, 'UNSPECIFIED' ) ;
#212 = FACE_OUTER_BOUND ( 'NONE', #99, .T. ) ;
#213 = EDGE_CURVE ( 'NONE', #259, #140, #36, .T. ) ;
#214 = APPROVAL_ROLE ( '' ) ;
#215 = CARTESIAN_POINT ( 'NONE',  ( -13.00000000000000000, 1.592040838891559095E-15, 50.00000000000000000 ) ) ;
#216 = LOCAL_TIME ( 8, 52, 11.00000000000000000, #288 ) ;
#217 = APPROVAL_DATE_TIME ( #261, #211 ) ;
#218 = CARTESIAN_POINT ( 'NONE',  ( 13.00000000000000000, 0.000000000000000000, 15.00000000000000000 ) ) ;
#219 = EDGE_CURVE ( 'NONE', #140, #259, #42, .T. ) ;
#220 = EDGE_CURVE ( 'NONE', #51, #103, #298, .T. ) ;
#221 = CARTESIAN_POINT ( 'NONE',  ( 0.000000000000000000, 0.000000000000000000, 0.000000000000000000 ) ) ;
#222 = CC_DESIGN_APPROVAL ( #211, ( #177 ) ) ;
#223 = DIRECTION ( 'NONE',  ( 0.000000000000000000, 0.000000000000000000, 1.000000000000000000 ) ) ;
#224 = ORIENTED_EDGE ( 'NONE', *, *, #207, .T. ) ;
#225 = DIRECTION ( 'NONE',  ( 0.000000000000000000, 0.000000000000000000, 1.000000000000000000 ) ) ;
#226 = ORIENTED_EDGE ( 'NONE', *, *, #194, .T. ) ;
#227 = CARTESIAN_POINT ( 'NONE',  ( 0.000000000000000000, 0.000000000000000000, 15.00000000000000000 ) ) ;
#228 = CC_DESIGN_PERSON_AND_ORGANIZATION_ASSIGNMENT ( #143, #289, ( #160 ) ) ;
#229 = CARTESIAN_POINT ( 'NONE',  ( 0.000000000000000000, 0.000000000000000000, 40.00000000000000000 ) ) ;
#230 = ORIENTED_EDGE ( 'NONE', *, *, #93, .T. ) ;
#231 = CARTESIAN_POINT ( 'NONE',  ( 0.000000000000000000, 0.000000000000000000, 50.00000000000000000 ) ) ;
#232 = CARTESIAN_POINT ( 'NONE',  ( -8.000000000000000000, 9.797174393178825657E-16, 15.00000000000000000 ) ) ;
#233 = ORIENTED_EDGE ( 'NONE', *, *, #58, .F. ) ;
#234 = CALENDAR_DATE ( 2021, 25, 10 ) ;
#235 = CARTESIAN_POINT ( 'NONE',  ( 0.000000000000000000, 0.000000000000000000, 50.00000000000000000 ) ) ;
#236 = APPROVAL_STATUS ( 'not_yet_approved' ) ;
#237 = CARTESIAN_POINT ( 'NONE',  ( 8.000000000000000000, 0.000000000000000000, 0.000000000000000000 ) ) ;
#238 = DIRECTION ( 'NONE',  ( 1.000000000000000000, 0.000000000000000000, 0.000000000000000000 ) ) ;
#239 = AXIS2_PLACEMENT_3D ( 'NONE', #98, #71, #50 ) ;
#240 = APPROVAL_ROLE ( '' ) ;
#241 = CARTESIAN_POINT ( 'NONE',  ( 25.00000000000000000, 0.000000000000000000, 0.000000000000000000 ) ) ;
#242 = AXIS2_PLACEMENT_3D ( 'NONE', #203, #323, #107 ) ;
#243 = ADVANCED_FACE ( 'NONE', ( #149 ), #244, .T. ) ;
#244 = CYLINDRICAL_SURFACE ( 'NONE', #284, 25.00000000000000000 ) ;
#245 = CC_DESIGN_APPROVAL ( #65, ( #160 ) ) ;
#246 = DIRECTION ( 'NONE',  ( 1.000000000000000000, 0.000000000000000000, 0.000000000000000000 ) ) ;
#247 = ADVANCED_FACE ( 'NONE', ( #72 ), #175, .F. ) ;
#248 = ORIENTED_EDGE ( 'NONE', *, *, #220, .F. ) ;
#249 = APPROVAL_DATE_TIME ( #291, #65 ) ;
#250 = DIRECTION ( 'NONE',  ( 0.000000000000000000, 0.000000000000000000, 1.000000000000000000 ) ) ;
#251 = ORIENTED_EDGE ( 'NONE', *, *, #299, .F. ) ;
#252 = CIRCLE ( 'NONE', #239, 13.00000000000000000 ) ;
#253 = EDGE_LOOP ( 'NONE', ( #251, #55, #22, #326 ) ) ;
#254 = LINE ( 'NONE', #158, #47 ) ;
#255 = DIRECTION ( 'NONE',  ( 1.000000000000000000, 0.000000000000000000, 0.000000000000000000 ) ) ;
#256 = ORIENTED_EDGE ( 'NONE', *, *, #62, .T. ) ;
#257 = CIRCLE ( 'NONE', #15, 8.000000000000000000 ) ;
#258 = ORIENTED_EDGE ( 'NONE', *, *, #181, .T. ) ;
#259 = VERTEX_POINT ( 'NONE', #232 ) ;
#260 = MANIFOLD_SOLID_BREP ( 'Imported1', #269 ) ;
#261 = DATE_AND_TIME ( #164, #63 ) ;
#262 =( GEOMETRIC_REPRESENTATION_CONTEXT ( 3 ) GLOBAL_UNCERTAINTY_ASSIGNED_CONTEXT ( ( #170 ) ) GLOBAL_UNIT_ASSIGNED_CONTEXT ( ( #12, #5, #110 ) ) REPRESENTATION_CONTEXT ( 'NONE', 'WORKASPACE' ) );
#263 = APPLICATION_PROTOCOL_DEFINITION ( 'international standard', 'config_control_design', 1994, #76 ) ;
#264 = CALENDAR_DATE ( 2021, 25, 10 ) ;
#265 = CARTESIAN_POINT ( 'NONE',  ( 25.00000000000000000, 0.000000000000000000, 50.00000000000000000 ) ) ;
#266 = APPROVAL_DATE_TIME ( #64, #44 ) ;
#267 = PERSON_AND_ORGANIZATION ( #159, #25 ) ;
#268 = CC_DESIGN_PERSON_AND_ORGANIZATION_ASSIGNMENT ( #92, #41, ( #85 ) ) ;
#269 = CLOSED_SHELL ( 'NONE', ( #283, #243, #11, #247, #131, #4, #95, #201, #111 ) ) ;
#270 = DIRECTION ( 'NONE',  ( 1.000000000000000000, 0.000000000000000000, 0.000000000000000000 ) ) ;
#271 = CARTESIAN_POINT ( 'NONE',  ( 0.000000000000000000, 0.000000000000000000, 40.00000000000000000 ) ) ;
#272 = ORIENTED_EDGE ( 'NONE', *, *, #194, .F. ) ;
#273 = AXIS2_PLACEMENT_3D ( 'NONE', #182, #132, #173 ) ;
#274 = DIRECTION ( 'NONE',  ( 1.000000000000000000, 0.000000000000000000, 0.000000000000000000 ) ) ;
#275 = EDGE_LOOP ( 'NONE', ( #188, #185 ) ) ;
#276 = CARTESIAN_POINT ( 'NONE',  ( 0.000000000000000000, 0.000000000000000000, 50.00000000000000000 ) ) ;
#277 = AXIS2_PLACEMENT_3D ( 'NONE', #235, #113, #17 ) ;
#278 = PLANE ( 'NONE',  #242 ) ;
#279 = EDGE_LOOP ( 'NONE', ( #6, #23 ) ) ;
#280 = ORIENTED_EDGE ( 'NONE', *, *, #297, .F. ) ;
#281 = CARTESIAN_POINT ( 'NONE',  ( 0.000000000000000000, 0.000000000000000000, 0.000000000000000000 ) ) ;
#282 = CARTESIAN_POINT ( 'NONE',  ( 0.000000000000000000, 0.000000000000000000, 0.000000000000000000 ) ) ;
#283 = ADVANCED_FACE ( 'NONE', ( #137 ), #31, .F. ) ;
#284 = AXIS2_PLACEMENT_3D ( 'NONE', #18, #319, #292 ) ;
#285 = PERSON_AND_ORGANIZATION ( #159, #25 ) ;
#286 = PERSON_AND_ORGANIZATION ( #159, #25 ) ;
#287 = VECTOR ( 'NONE', #303, 1000.000000000000000 ) ;
#288 = COORDINATED_UNIVERSAL_TIME_OFFSET ( 9, 0, .AHEAD. ) ;
#289 = PERSON_AND_ORGANIZATION_ROLE ( 'classification_officer' ) ;
#290 = AXIS2_PLACEMENT_3D ( 'NONE', #100, #225, #104 ) ;
#291 = DATE_AND_TIME ( #198, #189 ) ;
#292 = DIRECTION ( 'NONE',  ( 1.000000000000000000, 0.000000000000000000, 0.000000000000000000 ) ) ;
#293 = CC_DESIGN_DATE_AND_TIME_ASSIGNMENT ( #308, #147, ( #160 ) ) ;
#294 = LOCAL_TIME ( 8, 52, 11.00000000000000000, #167 ) ;
#295 = CARTESIAN_POINT ( 'NONE',  ( 0.000000000000000000, 0.000000000000000000, 15.00000000000000000 ) ) ;
#296 = VERTEX_POINT ( 'NONE', #30 ) ;
#297 = EDGE_CURVE ( 'NONE', #296, #112, #254, .T. ) ;
#298 = LINE ( 'NONE', #200, #317 ) ;
#299 = EDGE_CURVE ( 'NONE', #123, #109, #257, .T. ) ;
#300 = APPLICATION_PROTOCOL_DEFINITION ( 'international standard', 'config_control_design', 1994, #40 ) ;
#301 = CIRCLE ( 'NONE', #67, 13.00000000000000000 ) ;
#302 = CARTESIAN_POINT ( 'NONE',  ( 0.000000000000000000, 0.000000000000000000, 15.00000000000000000 ) ) ;
#303 = DIRECTION ( 'NONE',  ( 0.000000000000000000, 0.000000000000000000, 1.000000000000000000 ) ) ;
#304 = EDGE_LOOP ( 'NONE', ( #129, #156, #226, #258 ) ) ;
#305 = CC_DESIGN_PERSON_AND_ORGANIZATION_ASSIGNMENT ( #313, #14, ( #33 ) ) ;
#306 = CYLINDRICAL_SURFACE ( 'NONE', #329, 25.00000000000000000 ) ;
#307 = CARTESIAN_POINT ( 'NONE',  ( 25.00000000000000000, 0.000000000000000000, 50.00000000000000000 ) ) ;
#308 = DATE_AND_TIME ( #264, #216 ) ;
#309 = LOCAL_TIME ( 8, 52, 11.00000000000000000, #192 ) ;
#310 = DIRECTION ( 'NONE',  ( -1.000000000000000000, 0.000000000000000000, 0.000000000000000000 ) ) ;
#311 = PERSON_AND_ORGANIZATION_ROLE ( 'creator' ) ;
#312 = CIRCLE ( 'NONE', #315, 8.000000000000000000 ) ;
#313 = PERSON_AND_ORGANIZATION ( #159, #25 ) ;
#314 = CARTESIAN_POINT ( 'NONE',  ( -8.000000000000000000, 9.797174393178825657E-16, 40.00000000000000000 ) ) ;
#315 = AXIS2_PLACEMENT_3D ( 'NONE', #221, #172, #316 ) ;
#316 = DIRECTION ( 'NONE',  ( 1.000000000000000000, 0.000000000000000000, 0.000000000000000000 ) ) ;
#317 = VECTOR ( 'NONE', #45, 1000.000000000000000 ) ;
#318 = EDGE_CURVE ( 'NONE', #103, #112, #142, .T. ) ;
#319 = DIRECTION ( 'NONE',  ( 0.000000000000000000, 0.000000000000000000, 1.000000000000000000 ) ) ;
#320 = ORIENTED_EDGE ( 'NONE', *, *, #70, .F. ) ;
#321 = DIRECTION ( 'NONE',  ( 0.000000000000000000, 0.000000000000000000, 1.000000000000000000 ) ) ;
#322 = EDGE_LOOP ( 'NONE', ( #32, #9, #130, #248 ) ) ;
#323 = DIRECTION ( 'NONE',  ( 0.000000000000000000, 0.000000000000000000, -1.000000000000000000 ) ) ;
#324 = EDGE_CURVE ( 'NONE', #176, #78, #1, .T. ) ;
#325 = ORIENTED_EDGE ( 'NONE', *, *, #299, .T. ) ;
#326 = ORIENTED_EDGE ( 'NONE', *, *, #93, .F. ) ;
#327 = EDGE_CURVE ( 'NONE', #51, #296, #184, .T. ) ;
#328 = CARTESIAN_POINT ( 'NONE',  ( -25.00000000000000000, 3.061616997868383043E-15, 50.00000000000000000 ) ) ;
#329 = AXIS2_PLACEMENT_3D ( 'NONE', #84, #56, #61 ) ;
ENDSEC;
END-ISO-10303-21;
