ISO-10303-21;
HEADER;
FILE_DESCRIPTION (( 'STEP AP203' ),
    '1' );
FILE_NAME ('bj733-10100.STEP',
    '2021-10-25T00:01:53',
    ( '' ),
    ( '' ),
    'SwSTEP 2.0',
    'SolidWorks 2020',
    '' );
FILE_SCHEMA (( 'CONFIG_CONTROL_DESIGN' ));
ENDSEC;

DATA;
#1 = DIRECTION ( 'NONE',  ( 1.000000000000000000, 0.000000000000000000, 0.000000000000000000 ) ) ;
#2 = PLANE ( 'NONE',  #196 ) ;
#3 = ADVANCED_FACE ( 'NONE', ( #62, #6 ), #2, .F. ) ;
#4 = DIRECTION ( 'NONE',  ( 0.000000000000000000, 0.000000000000000000, -1.000000000000000000 ) ) ;
#5 = VERTEX_POINT ( 'NONE', #167 ) ;
#6 = FACE_BOUND ( 'NONE', #141, .T. ) ;
#7 = CLOSED_SHELL ( 'NONE', ( #116, #309, #226, #142, #33, #164, #203, #8, #3, #38 ) ) ;
#8 = ADVANCED_FACE ( 'NONE', ( #108 ), #131, .T. ) ;
#9 = DIRECTION ( 'NONE',  ( 1.000000000000000000, 0.000000000000000000, 0.000000000000000000 ) ) ;
#10 = ORIENTED_EDGE ( 'NONE', *, *, #244, .T. ) ;
#11 = PRODUCT_DEFINITION_SHAPE ( 'NONE', 'NONE',  #218 ) ;
#12 = PERSON_AND_ORGANIZATION_ROLE ( 'creator' ) ;
#13 = APPROVAL_ROLE ( '' ) ;
#14 = APPROVAL_ROLE ( '' ) ;
#15 = PERSON ( 'UNSPECIFIED', 'UNSPECIFIED', 'UNSPECIFIED', ('UNSPECIFIED'), ('UNSPECIFIED'), ('UNSPECIFIED') ) ;
#16 = AXIS2_PLACEMENT_3D ( 'NONE', #243, #128, #248 ) ;
#17 = EDGE_CURVE ( 'NONE', #114, #64, #228, .T. ) ;
#18 = FACE_OUTER_BOUND ( 'NONE', #202, .T. ) ;
#19 = CARTESIAN_POINT ( 'NONE',  ( 0.000000000000000000, 0.000000000000000000, -9.000000000000000000 ) ) ;
#20 = CC_DESIGN_PERSON_AND_ORGANIZATION_ASSIGNMENT ( #155, #130, ( #121 ) ) ;
#21 = AXIS2_PLACEMENT_3D ( 'NONE', #197, #103, #150 ) ;
#22 = CARTESIAN_POINT ( 'NONE',  ( 15.00000000000000000, 0.000000000000000000, -5.204170427930419264E-13 ) ) ;
#23 = DIRECTION ( 'NONE',  ( -1.000000000000000000, 0.000000000000000000, 0.000000000000000000 ) ) ;
#24 = VERTEX_POINT ( 'NONE', #159 ) ;
#25 = DIRECTION ( 'NONE',  ( 1.000000000000000000, 0.000000000000000000, 0.000000000000000000 ) ) ;
#26 = APPROVAL ( #82, 'UNSPECIFIED' ) ;
#27 = AXIS2_PLACEMENT_3D ( 'NONE', #46, #43, #23 ) ;
#28 = ORIENTED_EDGE ( 'NONE', *, *, #186, .F. ) ;
#29 = CARTESIAN_POINT ( 'NONE',  ( 5.000000000000000000, 0.000000000000000000, -9.000000000000000000 ) ) ;
#30 = VERTEX_POINT ( 'NONE', #256 ) ;
#31 = DIRECTION ( 'NONE',  ( 0.000000000000000000, 0.000000000000000000, 1.000000000000000000 ) ) ;
#32 = ORIENTED_EDGE ( 'NONE', *, *, #127, .T. ) ;
#33 = ADVANCED_FACE ( 'NONE', ( #237 ), #321, .T. ) ;
#34 = DIRECTION ( 'NONE',  ( 0.000000000000000000, 0.000000000000000000, 1.000000000000000000 ) ) ;
#35 = DESIGN_CONTEXT ( 'detailed design', #250, 'design' ) ;
#36 =( GEOMETRIC_REPRESENTATION_CONTEXT ( 3 ) GLOBAL_UNCERTAINTY_ASSIGNED_CONTEXT ( ( #163 ) ) GLOBAL_UNIT_ASSIGNED_CONTEXT ( ( #232, #56, #109 ) ) REPRESENTATION_CONTEXT ( 'NONE', 'WORKASPACE' ) );
#37 = DIRECTION ( 'NONE',  ( 0.7071067811865500152, 0.000000000000000000, 0.7071067811865450192 ) ) ;
#38 = ADVANCED_FACE ( 'NONE', ( #296 ), #132, .T. ) ;
#39 = VECTOR ( 'NONE', #37, 1000.000000000000000 ) ;
#40 = DATE_AND_TIME ( #238, #331 ) ;
#41 = SECURITY_CLASSIFICATION_LEVEL ( 'unclassified' ) ;
#42 = EDGE_CURVE ( 'NONE', #64, #282, #171, .T. ) ;
#43 = DIRECTION ( 'NONE',  ( 0.000000000000000000, 0.000000000000000000, -1.000000000000000000 ) ) ;
#44 = AXIS2_PLACEMENT_3D ( 'NONE', #327, #219, #72 ) ;
#45 = PRODUCT_DEFINITION_FORMATION_WITH_SPECIFIED_SOURCE ( 'ANY', '', #121, .NOT_KNOWN. ) ;
#46 = CARTESIAN_POINT ( 'NONE',  ( 5.000000000000000000, 0.000000000000000000, -10.00000000000000000 ) ) ;
#47 = ORIENTED_EDGE ( 'NONE', *, *, #191, .F. ) ;
#48 = LINE ( 'NONE', #102, #262 ) ;
#49 = DIRECTION ( 'NONE',  ( 0.000000000000000000, 0.000000000000000000, 1.000000000000000000 ) ) ;
#50 = ORIENTED_EDGE ( 'NONE', *, *, #17, .T. ) ;
#51 = AXIS2_PLACEMENT_3D ( 'NONE', #305, #258, #160 ) ;
#52 = DIRECTION ( 'NONE',  ( 0.000000000000000000, 0.000000000000000000, 1.000000000000000000 ) ) ;
#53 = ORIENTED_EDGE ( 'NONE', *, *, #66, .F. ) ;
#54 = DIRECTION ( 'NONE',  ( 1.000000000000000000, 0.000000000000000000, 0.000000000000000000 ) ) ;
#55 = CC_DESIGN_PERSON_AND_ORGANIZATION_ASSIGNMENT ( #115, #214, ( #218 ) ) ;
#56 =( NAMED_UNIT ( * ) PLANE_ANGLE_UNIT ( ) SI_UNIT ( $, .RADIAN. ) );
#57 = ORIENTED_EDGE ( 'NONE', *, *, #244, .F. ) ;
#58 = CARTESIAN_POINT ( 'NONE',  ( 0.000000000000000000, 0.000000000000000000, -20.00000000000000000 ) ) ;
#59 = CIRCLE ( 'NONE', #285, 5.000000000000000000 ) ;
#60 = DIRECTION ( 'NONE',  ( 1.000000000000000000, 0.000000000000000000, 0.000000000000000000 ) ) ;
#61 = CARTESIAN_POINT ( 'NONE',  ( 0.000000000000000000, 0.000000000000000000, 0.000000000000000000 ) ) ;
#62 = FACE_OUTER_BOUND ( 'NONE', #290, .T. ) ;
#63 = DIRECTION ( 'NONE',  ( 1.000000000000000000, 0.000000000000000000, 0.000000000000000000 ) ) ;
#64 = VERTEX_POINT ( 'NONE', #120 ) ;
#65 = ORIENTED_EDGE ( 'NONE', *, *, #220, .T. ) ;
#66 = EDGE_CURVE ( 'NONE', #282, #185, #59, .T. ) ;
#67 = CALENDAR_DATE ( 2021, 25, 10 ) ;
#68 = CARTESIAN_POINT ( 'NONE',  ( 5.000000000000000000, 0.000000000000000000, -9.000000000000000000 ) ) ;
#69 = CC_DESIGN_SECURITY_CLASSIFICATION ( #200, ( #45 ) ) ;
#70 = DATE_TIME_ROLE ( 'classification_date' ) ;
#71 = CC_DESIGN_DATE_AND_TIME_ASSIGNMENT ( #40, #187, ( #218 ) ) ;
#72 = DIRECTION ( 'NONE',  ( 1.000000000000000000, 0.000000000000000000, 0.000000000000000000 ) ) ;
#73 = AXIS2_PLACEMENT_3D ( 'NONE', #181, #84, #283 ) ;
#74 = LOCAL_TIME ( 9, 1, 53.00000000000000000, #239 ) ;
#75 = DIRECTION ( 'NONE',  ( 1.000000000000000000, 0.000000000000000000, 0.000000000000000000 ) ) ;
#76 = DIRECTION ( 'NONE',  ( 0.000000000000000000, 0.000000000000000000, 1.000000000000000000 ) ) ;
#77 = CARTESIAN_POINT ( 'NONE',  ( -5.000000000000000000, 6.123233995736766282E-16, -9.000000000000000000 ) ) ;
#78 = AXIS2_PLACEMENT_3D ( 'NONE', #251, #225, #63 ) ;
#79 = EDGE_CURVE ( 'NONE', #30, #5, #176, .T. ) ;
#80 = APPLICATION_PROTOCOL_DEFINITION ( 'international standard', 'config_control_design', 1994, #236 ) ;
#81 = CARTESIAN_POINT ( 'NONE',  ( 0.000000000000000000, 0.000000000000000000, -10.00000000000000000 ) ) ;
#82 = APPROVAL_STATUS ( 'not_yet_approved' ) ;
#83 = EDGE_LOOP ( 'NONE', ( #253, #57, #273, #110 ) ) ;
#84 = DIRECTION ( 'NONE',  ( -0.000000000000000000, -0.000000000000000000, 1.000000000000000000 ) ) ;
#85 = CONICAL_SURFACE ( 'NONE', #126, 5.000000000000000000, 0.7853981633974518317 ) ;
#86 = ORIENTED_EDGE ( 'NONE', *, *, #194, .F. ) ;
#87 = VERTEX_POINT ( 'NONE', #297 ) ;
#88 = VERTEX_POINT ( 'NONE', #270 ) ;
#89 = COORDINATED_UNIVERSAL_TIME_OFFSET ( 9, 0, .AHEAD. ) ;
#90 = DIRECTION ( 'NONE',  ( 1.000000000000000000, 0.000000000000000000, 0.000000000000000000 ) ) ;
#91 = CIRCLE ( 'NONE', #157, 5.000000000000000000 ) ;
#92 = EDGE_CURVE ( 'NONE', #88, #312, #91, .T. ) ;
#93 = PERSON_AND_ORGANIZATION ( #15, #124 ) ;
#94 = APPROVAL_DATE_TIME ( #165, #26 ) ;
#95 = CALENDAR_DATE ( 2021, 25, 10 ) ;
#96 = EDGE_CURVE ( 'NONE', #24, #5, #268, .T. ) ;
#97 = AXIS2_PLACEMENT_3D ( 'NONE', #117, #317, #90 ) ;
#98 = CARTESIAN_POINT ( 'NONE',  ( -5.000000000000000000, 6.123233995736766282E-16, 50.00000000000000000 ) ) ;
#99 = EDGE_CURVE ( 'NONE', #282, #88, #48, .T. ) ;
#100 = CIRCLE ( 'NONE', #51, 30.00000000000000355 ) ;
#101 = FACE_OUTER_BOUND ( 'NONE', #231, .T. ) ;
#102 = CARTESIAN_POINT ( 'NONE',  ( 5.000000000000000000, 0.000000000000000000, 50.00000000000000000 ) ) ;
#103 = DIRECTION ( 'NONE',  ( 0.000000000000000000, 0.000000000000000000, 1.000000000000000000 ) ) ;
#104 = CC_DESIGN_PERSON_AND_ORGANIZATION_ASSIGNMENT ( #316, #240, ( #45 ) ) ;
#105 = CC_DESIGN_APPROVAL ( #26, ( #218 ) ) ;
#106 = CARTESIAN_POINT ( 'NONE',  ( 0.000000000000000000, 0.000000000000000000, 50.00000000000000000 ) ) ;
#107 = DIRECTION ( 'NONE',  ( -1.000000000000000000, 0.000000000000000000, 0.000000000000000000 ) ) ;
#108 = FACE_OUTER_BOUND ( 'NONE', #138, .T. ) ;
#109 =( NAMED_UNIT ( * ) SI_UNIT ( $, .STERADIAN. ) SOLID_ANGLE_UNIT ( ) );
#110 = ORIENTED_EDGE ( 'NONE', *, *, #220, .F. ) ;
#111 = AXIS2_PLACEMENT_3D ( 'NONE', #286, #229, #54 ) ;
#112 = ORIENTED_EDGE ( 'NONE', *, *, #209, .F. ) ;
#113 = FACE_OUTER_BOUND ( 'NONE', #311, .T. ) ;
#114 = VERTEX_POINT ( 'NONE', #174 ) ;
#115 = PERSON_AND_ORGANIZATION ( #15, #124 ) ;
#116 = ADVANCED_FACE ( 'NONE', ( #18 ), #85, .T. ) ;
#117 = CARTESIAN_POINT ( 'NONE',  ( 0.000000000000000000, 0.000000000000000000, -9.000000000000000000 ) ) ;
#118 = AXIS2_PLACEMENT_3D ( 'NONE', #204, #4, #107 ) ;
#119 = APPROVAL_PERSON_ORGANIZATION ( #265, #280, #13 ) ;
#120 = CARTESIAN_POINT ( 'NONE',  ( 4.000000000000000000, 0.000000000000000000, -10.00000000000000000 ) ) ;
#121 = PRODUCT ( 'bj733-10100', 'bj733-10100', '', ( #260 ) ) ;
#122 = CALENDAR_DATE ( 2021, 25, 10 ) ;
#123 = CARTESIAN_POINT ( 'NONE',  ( 0.000000000000000000, 0.000000000000000000, 50.00000000000000000 ) ) ;
#124 = ORGANIZATION ( 'UNSPECIFIED', 'UNSPECIFIED', '' ) ;
#125 = CARTESIAN_POINT ( 'NONE',  ( 15.00000000000000000, 0.000000000000000000, 50.00000000000000000 ) ) ;
#126 = AXIS2_PLACEMENT_3D ( 'NONE', #19, #272, #302 ) ;
#127 = EDGE_CURVE ( 'NONE', #185, #312, #276, .T. ) ;
#128 = DIRECTION ( 'NONE',  ( 1.224646799147353207E-16, 1.000000000000000000, -0.000000000000000000 ) ) ;
#129 = VERTEX_POINT ( 'NONE', #22 ) ;
#130 = PERSON_AND_ORGANIZATION_ROLE ( 'design_owner' ) ;
#131 = CYLINDRICAL_SURFACE ( 'NONE', #324, 15.00000000000000000 ) ;
#132 = CONICAL_SURFACE ( 'NONE', #97, 5.000000000000000000, 0.7853981633974518317 ) ;
#133 = APPROVAL_PERSON_ORGANIZATION ( #143, #249, #14 ) ;
#134 = ORIENTED_EDGE ( 'NONE', *, *, #96, .F. ) ;
#135 = CYLINDRICAL_SURFACE ( 'NONE', #189, 15.00000000000000000 ) ;
#136 = ORIENTED_EDGE ( 'NONE', *, *, #209, .T. ) ;
#137 = CARTESIAN_POINT ( 'NONE',  ( 0.000000000000000000, 0.000000000000000000, 5.980762113533160118 ) ) ;
#138 = EDGE_LOOP ( 'NONE', ( #261, #184, #156, #308 ) ) ;
#139 = PERSON_AND_ORGANIZATION ( #15, #124 ) ;
#140 = CIRCLE ( 'NONE', #193, 5.000000000000000000 ) ;
#141 = EDGE_LOOP ( 'NONE', ( #161, #136 ) ) ;
#142 = ADVANCED_FACE ( 'NONE', ( #223 ), #275, .T. ) ;
#143 = PERSON_AND_ORGANIZATION ( #15, #124 ) ;
#144 = APPROVAL_ROLE ( '' ) ;
#145 = APPROVAL_STATUS ( 'not_yet_approved' ) ;
#146 = DATE_AND_TIME ( #122, #74 ) ;
#147 = DIRECTION ( 'NONE',  ( 0.000000000000000000, 0.000000000000000000, 1.000000000000000000 ) ) ;
#148 = VECTOR ( 'NONE', #52, 1000.000000000000000 ) ;
#149 = EDGE_CURVE ( 'NONE', #114, #185, #301, .T. ) ;
#150 = DIRECTION ( 'NONE',  ( 1.000000000000000000, 0.000000000000000000, 0.000000000000000000 ) ) ;
#151 = DIRECTION ( 'NONE',  ( 0.000000000000000000, 0.000000000000000000, 1.000000000000000000 ) ) ;
#152 = AXIS2_PLACEMENT_3D ( 'NONE', #329, #212, #9 ) ;
#153 = EDGE_LOOP ( 'NONE', ( #195, #179, #172 ) ) ;
#154 = CARTESIAN_POINT ( 'NONE',  ( 0.000000000000000000, 0.000000000000000000, 50.00000000000000000 ) ) ;
#155 = PERSON_AND_ORGANIZATION ( #15, #124 ) ;
#156 = ORIENTED_EDGE ( 'NONE', *, *, #186, .T. ) ;
#157 = AXIS2_PLACEMENT_3D ( 'NONE', #175, #49, #323 ) ;
#158 = DIRECTION ( 'NONE',  ( 0.000000000000000000, 1.000000000000000000, 0.000000000000000000 ) ) ;
#159 = CARTESIAN_POINT ( 'NONE',  ( 15.00000000000000000, 0.000000000000000000, 5.980762113533159230 ) ) ;
#160 = DIRECTION ( 'NONE',  ( 0.000000000000000000, 0.000000000000000000, -1.000000000000000000 ) ) ;
#161 = ORIENTED_EDGE ( 'NONE', *, *, #92, .T. ) ;
#162 = ORIENTED_EDGE ( 'NONE', *, *, #149, .T. ) ;
#163 = UNCERTAINTY_MEASURE_WITH_UNIT (LENGTH_MEASURE( 1.000000000000000082E-05 ), #232, 'distance_accuracy_value', 'NONE');
#164 = ADVANCED_FACE ( 'NONE', ( #242 ), #325, .T. ) ;
#165 = DATE_AND_TIME ( #215, #241 ) ;
#166 = CIRCLE ( 'NONE', #73, 5.000000000000000000 ) ;
#167 = CARTESIAN_POINT ( 'NONE',  ( -15.00000000000000000, 1.836970198721029589E-15, 5.980762113533159230 ) ) ;
#168 = DATE_AND_TIME ( #67, #177 ) ;
#169 = VECTOR ( 'NONE', #198, 1000.000000000000000 ) ;
#170 = CC_DESIGN_APPROVAL ( #249, ( #200 ) ) ;
#171 = LINE ( 'NONE', #68, #39 ) ;
#172 = ORIENTED_EDGE ( 'NONE', *, *, #293, .F. ) ;
#173 = AXIS2_PLACEMENT_3D ( 'NONE', #328, #147, #75 ) ;
#174 = CARTESIAN_POINT ( 'NONE',  ( -4.000000000000000000, 5.510910596163088569E-16, -10.00000000000000000 ) ) ;
#175 = CARTESIAN_POINT ( 'NONE',  ( 0.000000000000000000, 0.000000000000000000, 0.000000000000000000 ) ) ;
#176 = LINE ( 'NONE', #245, #216 ) ;
#177 = LOCAL_TIME ( 9, 1, 53.00000000000000000, #320 ) ;
#178 = FACE_OUTER_BOUND ( 'NONE', #153, .T. ) ;
#179 = ORIENTED_EDGE ( 'NONE', *, *, #191, .T. ) ;
#180 = PRODUCT_RELATED_PRODUCT_CATEGORY ( 'detail', '', ( #121 ) ) ;
#181 = CARTESIAN_POINT ( 'NONE',  ( 0.000000000000000000, 0.000000000000000000, -9.000000000000000000 ) ) ;
#182 = DIRECTION ( 'NONE',  ( -1.000000000000000000, 0.000000000000000000, 0.000000000000000000 ) ) ;
#183 = AXIS2_PLACEMENT_3D ( 'NONE', #123, #315, #269 ) ;
#184 = ORIENTED_EDGE ( 'NONE', *, *, #194, .T. ) ;
#185 = VERTEX_POINT ( 'NONE', #77 ) ;
#186 = EDGE_CURVE ( 'NONE', #129, #24, #278, .T. ) ;
#187 = DATE_TIME_ROLE ( 'creation_date' ) ;
#188 = EDGE_LOOP ( 'NONE', ( #10, #50 ) ) ;
#189 = AXIS2_PLACEMENT_3D ( 'NONE', #154, #31, #252 ) ;
#190 = PERSON_AND_ORGANIZATION_ROLE ( 'classification_officer' ) ;
#191 = EDGE_CURVE ( 'NONE', #5, #87, #271, .T. ) ;
#192 = APPROVAL_STATUS ( 'not_yet_approved' ) ;
#193 = AXIS2_PLACEMENT_3D ( 'NONE', #61, #310, #1 ) ;
#194 = EDGE_CURVE ( 'NONE', #30, #129, #208, .T. ) ;
#195 = ORIENTED_EDGE ( 'NONE', *, *, #96, .T. ) ;
#196 = AXIS2_PLACEMENT_3D ( 'NONE', #211, #34, #235 ) ;
#197 = CARTESIAN_POINT ( 'NONE',  ( 0.000000000000000000, 0.000000000000000000, 50.00000000000000000 ) ) ;
#198 = DIRECTION ( 'NONE',  ( -0.7071067811865500152, 8.659560562354963673E-17, 0.7071067811865450192 ) ) ;
#199 = APPROVAL_PERSON_ORGANIZATION ( #139, #26, #144 ) ;
#200 = SECURITY_CLASSIFICATION ( '', '', #41 ) ;
#201 = DIRECTION ( 'NONE',  ( 1.000000000000000000, 0.000000000000000000, 0.000000000000000000 ) ) ;
#202 = EDGE_LOOP ( 'NONE', ( #213, #162, #53, #263 ) ) ;
#203 = ADVANCED_FACE ( 'NONE', ( #101 ), #206, .T. ) ;
#204 = CARTESIAN_POINT ( 'NONE',  ( 0.000000000000000000, 0.000000000000000000, -10.00000000000000000 ) ) ;
#205 = DIRECTION ( 'NONE',  ( 0.000000000000000000, 0.000000000000000000, -1.000000000000000000 ) ) ;
#206 = SPHERICAL_SURFACE ( 'NONE', #111, 30.00000000000000000 ) ;
#207 = ORIENTED_EDGE ( 'NONE', *, *, #293, .T. ) ;
#208 = CIRCLE ( 'NONE', #173, 15.00000000000000000 ) ;
#209 = EDGE_CURVE ( 'NONE', #312, #88, #140, .T. ) ;
#210 = LOCAL_TIME ( 9, 1, 53.00000000000000000, #266 ) ;
#211 = CARTESIAN_POINT ( 'NONE',  ( 5.000000000000000000, 0.000000000000000000, 0.000000000000000000 ) ) ;
#212 = DIRECTION ( 'NONE',  ( 0.000000000000000000, 0.000000000000000000, 1.000000000000000000 ) ) ;
#213 = ORIENTED_EDGE ( 'NONE', *, *, #17, .F. ) ;
#214 = PERSON_AND_ORGANIZATION_ROLE ( 'creator' ) ;
#215 = CALENDAR_DATE ( 2021, 25, 10 ) ;
#216 = VECTOR ( 'NONE', #76, 1000.000000000000000 ) ;
#217 = COORDINATED_UNIVERSAL_TIME_OFFSET ( 9, 0, .AHEAD. ) ;
#218 = PRODUCT_DEFINITION ( 'UNKNOWN', '', #45, #35 ) ;
#219 = DIRECTION ( 'NONE',  ( 0.000000000000000000, 0.000000000000000000, 1.000000000000000000 ) ) ;
#220 = EDGE_CURVE ( 'NONE', #185, #282, #166, .T. ) ;
#221 = DIRECTION ( 'NONE',  ( -1.000000000000000000, 0.000000000000000000, 0.000000000000000000 ) ) ;
#222 = AXIS2_PLACEMENT_3D ( 'NONE', #81, #205, #182 ) ;
#223 = FACE_OUTER_BOUND ( 'NONE', #227, .T. ) ;
#224 = DIRECTION ( 'NONE',  ( 0.000000000000000000, 0.000000000000000000, 1.000000000000000000 ) ) ;
#225 = DIRECTION ( 'NONE',  ( 0.000000000000000000, 0.000000000000000000, 1.000000000000000000 ) ) ;
#226 = ADVANCED_FACE ( 'NONE', ( #178 ), #255, .T. ) ;
#227 = EDGE_LOOP ( 'NONE', ( #284, #32, #288, #246 ) ) ;
#228 = CIRCLE ( 'NONE', #222, 4.000000000000000000 ) ;
#229 = DIRECTION ( 'NONE',  ( 0.000000000000000000, 1.000000000000000000, 0.000000000000000000 ) ) ;
#230 = ORIENTED_EDGE ( 'NONE', *, *, #257, .T. ) ;
#231 = EDGE_LOOP ( 'NONE', ( #47, #287, #207 ) ) ;
#232 =( LENGTH_UNIT ( ) NAMED_UNIT ( * ) SI_UNIT ( .MILLI., .METRE. ) );
#233 = EDGE_LOOP ( 'NONE', ( #330, #65, #277, #112 ) ) ;
#234 = DIRECTION ( 'NONE',  ( 0.000000000000000000, 0.000000000000000000, 1.000000000000000000 ) ) ;
#235 = DIRECTION ( 'NONE',  ( 1.000000000000000000, 0.000000000000000000, 0.000000000000000000 ) ) ;
#236 = APPLICATION_CONTEXT ( 'configuration controlled 3d designs of mechanical parts and assemblies' ) ;
#237 = FACE_OUTER_BOUND ( 'NONE', #233, .T. ) ;
#238 = CALENDAR_DATE ( 2021, 25, 10 ) ;
#239 = COORDINATED_UNIVERSAL_TIME_OFFSET ( 9, 0, .AHEAD. ) ;
#240 = PERSON_AND_ORGANIZATION_ROLE ( 'design_supplier' ) ;
#241 = LOCAL_TIME ( 9, 1, 53.00000000000000000, #89 ) ;
#242 = FACE_OUTER_BOUND ( 'NONE', #188, .T. ) ;
#243 = CARTESIAN_POINT ( 'NONE',  ( 0.000000000000000000, 0.000000000000000000, -20.00000000000000000 ) ) ;
#244 = EDGE_CURVE ( 'NONE', #64, #114, #295, .T. ) ;
#245 = CARTESIAN_POINT ( 'NONE',  ( -15.00000000000000000, 1.836970198721029589E-15, 50.00000000000000000 ) ) ;
#246 = ORIENTED_EDGE ( 'NONE', *, *, #99, .F. ) ;
#247 = VECTOR ( 'NONE', #151, 1000.000000000000000 ) ;
#248 = DIRECTION ( 'NONE',  ( -1.000000000000000000, 1.224646799147352961E-16, 0.000000000000000000 ) ) ;
#249 = APPROVAL ( #192, 'UNSPECIFIED' ) ;
#250 = APPLICATION_CONTEXT ( 'configuration controlled 3d designs of mechanical parts and assemblies' ) ;
#251 = CARTESIAN_POINT ( 'NONE',  ( 0.000000000000000000, 0.000000000000000000, 0.000000000000000000 ) ) ;
#252 = DIRECTION ( 'NONE',  ( 1.000000000000000000, 0.000000000000000000, 0.000000000000000000 ) ) ;
#253 = ORIENTED_EDGE ( 'NONE', *, *, #149, .F. ) ;
#254 = AXIS2_PLACEMENT_3D ( 'NONE', #58, #158, #201 ) ;
#255 = SPHERICAL_SURFACE ( 'NONE', #254, 30.00000000000000000 ) ;
#256 = CARTESIAN_POINT ( 'NONE',  ( -15.00000000000000000, 1.836970198721029589E-15, -5.204170427930419264E-13 ) ) ;
#257 = EDGE_CURVE ( 'NONE', #129, #30, #279, .T. ) ;
#258 = DIRECTION ( 'NONE',  ( 0.000000000000000000, -1.000000000000000000, 0.000000000000000000 ) ) ;
#259 = ORIENTED_EDGE ( 'NONE', *, *, #79, .T. ) ;
#260 = MECHANICAL_CONTEXT ( 'NONE', #236, 'mechanical' ) ;
#261 = ORIENTED_EDGE ( 'NONE', *, *, #79, .F. ) ;
#262 = VECTOR ( 'NONE', #224, 1000.000000000000000 ) ;
#263 = ORIENTED_EDGE ( 'NONE', *, *, #42, .F. ) ;
#264 = CC_DESIGN_DATE_AND_TIME_ASSIGNMENT ( #146, #70, ( #200 ) ) ;
#265 = PERSON_AND_ORGANIZATION ( #15, #124 ) ;
#266 = COORDINATED_UNIVERSAL_TIME_OFFSET ( 9, 0, .AHEAD. ) ;
#267 = APPROVAL_DATE_TIME ( #318, #280 ) ;
#268 = CIRCLE ( 'NONE', #44, 15.00000000000000000 ) ;
#269 = DIRECTION ( 'NONE',  ( 1.000000000000000000, 0.000000000000000000, 0.000000000000000000 ) ) ;
#270 = CARTESIAN_POINT ( 'NONE',  ( 5.000000000000000000, 0.000000000000000000, 0.000000000000000000 ) ) ;
#271 = CIRCLE ( 'NONE', #16, 30.00000000000000000 ) ;
#272 = DIRECTION ( 'NONE',  ( 0.000000000000000000, 0.000000000000000000, 1.000000000000000000 ) ) ;
#273 = ORIENTED_EDGE ( 'NONE', *, *, #42, .T. ) ;
#274 = CC_DESIGN_APPROVAL ( #280, ( #45 ) ) ;
#275 = CYLINDRICAL_SURFACE ( 'NONE', #21, 5.000000000000000000 ) ;
#276 = LINE ( 'NONE', #98, #247 ) ;
#277 = ORIENTED_EDGE ( 'NONE', *, *, #99, .T. ) ;
#278 = LINE ( 'NONE', #125, #148 ) ;
#279 = CIRCLE ( 'NONE', #152, 15.00000000000000000 ) ;
#280 = APPROVAL ( #145, 'UNSPECIFIED' ) ;
#281 = CARTESIAN_POINT ( 'NONE',  ( -5.000000000000000000, 6.123233995736766282E-16, 0.000000000000000000 ) ) ;
#282 = VERTEX_POINT ( 'NONE', #29 ) ;
#283 = DIRECTION ( 'NONE',  ( -1.000000000000000000, 0.000000000000000000, 0.000000000000000000 ) ) ;
#284 = ORIENTED_EDGE ( 'NONE', *, *, #66, .T. ) ;
#285 = AXIS2_PLACEMENT_3D ( 'NONE', #319, #300, #221 ) ;
#286 = CARTESIAN_POINT ( 'NONE',  ( 0.000000000000000000, 0.000000000000000000, -20.00000000000000000 ) ) ;
#287 = ORIENTED_EDGE ( 'NONE', *, *, #326, .T. ) ;
#288 = ORIENTED_EDGE ( 'NONE', *, *, #92, .F. ) ;
#289 = PERSON_AND_ORGANIZATION ( #15, #124 ) ;
#290 = EDGE_LOOP ( 'NONE', ( #313, #86 ) ) ;
#291 = ADVANCED_BREP_SHAPE_REPRESENTATION ( 'bj733-10100', ( #304, #78 ), #36 ) ;
#292 = SHAPE_DEFINITION_REPRESENTATION ( #11, #291 ) ;
#293 = EDGE_CURVE ( 'NONE', #24, #87, #100, .T. ) ;
#294 = APPROVAL_DATE_TIME ( #168, #249 ) ;
#295 = CIRCLE ( 'NONE', #118, 4.000000000000000000 ) ;
#296 = FACE_OUTER_BOUND ( 'NONE', #83, .T. ) ;
#297 = CARTESIAN_POINT ( 'NONE',  ( 1.836970198721029589E-15, 0.000000000000000000, 9.999999999999998224 ) ) ;
#298 = AXIS2_PLACEMENT_3D ( 'NONE', #137, #234, #25 ) ;
#299 = CARTESIAN_POINT ( 'NONE',  ( -5.000000000000000000, 6.123233995736766282E-16, -9.000000000000000000 ) ) ;
#300 = DIRECTION ( 'NONE',  ( -0.000000000000000000, -0.000000000000000000, 1.000000000000000000 ) ) ;
#301 = LINE ( 'NONE', #299, #169 ) ;
#302 = DIRECTION ( 'NONE',  ( 1.000000000000000000, 0.000000000000000000, 0.000000000000000000 ) ) ;
#303 = CIRCLE ( 'NONE', #298, 15.00000000000000000 ) ;
#304 = MANIFOLD_SOLID_BREP ( 'Imported1', #7 ) ;
#305 = CARTESIAN_POINT ( 'NONE',  ( 0.000000000000000000, 0.000000000000000000, -20.00000000000000000 ) ) ;
#306 = DIRECTION ( 'NONE',  ( 0.000000000000000000, 0.000000000000000000, 1.000000000000000000 ) ) ;
#307 = APPLICATION_PROTOCOL_DEFINITION ( 'international standard', 'config_control_design', 1994, #250 ) ;
#308 = ORIENTED_EDGE ( 'NONE', *, *, #326, .F. ) ;
#309 = ADVANCED_FACE ( 'NONE', ( #113 ), #135, .T. ) ;
#310 = DIRECTION ( 'NONE',  ( 0.000000000000000000, 0.000000000000000000, 1.000000000000000000 ) ) ;
#311 = EDGE_LOOP ( 'NONE', ( #230, #259, #134, #28 ) ) ;
#312 = VERTEX_POINT ( 'NONE', #281 ) ;
#313 = ORIENTED_EDGE ( 'NONE', *, *, #257, .F. ) ;
#314 = CC_DESIGN_PERSON_AND_ORGANIZATION_ASSIGNMENT ( #289, #190, ( #200 ) ) ;
#315 = DIRECTION ( 'NONE',  ( 0.000000000000000000, 0.000000000000000000, 1.000000000000000000 ) ) ;
#316 = PERSON_AND_ORGANIZATION ( #15, #124 ) ;
#317 = DIRECTION ( 'NONE',  ( 0.000000000000000000, 0.000000000000000000, 1.000000000000000000 ) ) ;
#318 = DATE_AND_TIME ( #95, #210 ) ;
#319 = CARTESIAN_POINT ( 'NONE',  ( 0.000000000000000000, 0.000000000000000000, -9.000000000000000000 ) ) ;
#320 = COORDINATED_UNIVERSAL_TIME_OFFSET ( 9, 0, .AHEAD. ) ;
#321 = CYLINDRICAL_SURFACE ( 'NONE', #183, 5.000000000000000000 ) ;
#322 = CC_DESIGN_PERSON_AND_ORGANIZATION_ASSIGNMENT ( #93, #12, ( #45 ) ) ;
#323 = DIRECTION ( 'NONE',  ( 1.000000000000000000, 0.000000000000000000, 0.000000000000000000 ) ) ;
#324 = AXIS2_PLACEMENT_3D ( 'NONE', #106, #306, #60 ) ;
#325 = PLANE ( 'NONE',  #27 ) ;
#326 = EDGE_CURVE ( 'NONE', #5, #24, #303, .T. ) ;
#327 = CARTESIAN_POINT ( 'NONE',  ( 0.000000000000000000, 0.000000000000000000, 5.980762113533160118 ) ) ;
#328 = CARTESIAN_POINT ( 'NONE',  ( 0.000000000000000000, 0.000000000000000000, -5.204170427930419264E-13 ) ) ;
#329 = CARTESIAN_POINT ( 'NONE',  ( 0.000000000000000000, 0.000000000000000000, -5.204170427930419264E-13 ) ) ;
#330 = ORIENTED_EDGE ( 'NONE', *, *, #127, .F. ) ;
#331 = LOCAL_TIME ( 9, 1, 53.00000000000000000, #217 ) ;
ENDSEC;
END-ISO-10303-21;
