ISO-10303-21;
HEADER;
FILE_DESCRIPTION (( 'STEP AP203' ),
    '1' );
FILE_NAME ('bj300-16063.STEP',
    '2021-10-24T23:51:40',
    ( '' ),
    ( '' ),
    'SwSTEP 2.0',
    'SolidWorks 2020',
    '' );
FILE_SCHEMA (( 'CONFIG_CONTROL_DESIGN' ));
ENDSEC;

DATA;
#1 = CALENDAR_DATE ( 2021, 25, 10 ) ;
#2 = CC_DESIGN_PERSON_AND_ORGANIZATION_ASSIGNMENT ( #152, #274, ( #322 ) ) ;
#3 = VECTOR ( 'NONE', #228, 1000.000000000000000 ) ;
#4 = VERTEX_POINT ( 'NONE', #43 ) ;
#5 = CARTESIAN_POINT ( 'NONE',  ( 0.000000000000000000, 0.000000000000000000, 40.00000000000000000 ) ) ;
#6 = ORIENTED_EDGE ( 'NONE', *, *, #145, .F. ) ;
#7 = AXIS2_PLACEMENT_3D ( 'NONE', #178, #273, #157 ) ;
#8 = ORIENTED_EDGE ( 'NONE', *, *, #115, .T. ) ;
#9 = PERSON_AND_ORGANIZATION ( #191, #215 ) ;
#10 = ORIENTED_EDGE ( 'NONE', *, *, #229, .T. ) ;
#11 = CIRCLE ( 'NONE', #141, 25.00000000000000000 ) ;
#12 = CIRCLE ( 'NONE', #280, 9.000000000000000000 ) ;
#13 = LINE ( 'NONE', #240, #259 ) ;
#14 = EDGE_CURVE ( 'NONE', #51, #193, #13, .T. ) ;
#15 = AXIS2_PLACEMENT_3D ( 'NONE', #5, #90, #119 ) ;
#16 = CARTESIAN_POINT ( 'NONE',  ( -25.00000000000000000, 3.061616997868383043E-15, 0.000000000000000000 ) ) ;
#17 = DIRECTION ( 'NONE',  ( 0.000000000000000000, 0.000000000000000000, 1.000000000000000000 ) ) ;
#18 = PERSON_AND_ORGANIZATION_ROLE ( 'design_supplier' ) ;
#19 = CIRCLE ( 'NONE', #116, 25.00000000000000000 ) ;
#20 = ORIENTED_EDGE ( 'NONE', *, *, #122, .T. ) ;
#21 = EDGE_CURVE ( 'NONE', #98, #51, #19, .T. ) ;
#22 = DIRECTION ( 'NONE',  ( 1.000000000000000000, 0.000000000000000000, 0.000000000000000000 ) ) ;
#23 = CC_DESIGN_DATE_AND_TIME_ASSIGNMENT ( #212, #103, ( #197 ) ) ;
#24 = APPROVAL_ROLE ( '' ) ;
#25 = LINE ( 'NONE', #137, #83 ) ;
#26 = CARTESIAN_POINT ( 'NONE',  ( -9.000000000000000000, 1.102182119232617714E-15, 40.00000000000000000 ) ) ;
#27 = ADVANCED_FACE ( 'NONE', ( #131 ), #126, .F. ) ;
#28 = DIRECTION ( 'NONE',  ( 0.000000000000000000, 0.000000000000000000, 1.000000000000000000 ) ) ;
#29 = CARTESIAN_POINT ( 'NONE',  ( -25.00000000000000000, 3.061616997868383043E-15, 63.00000000000000000 ) ) ;
#30 = ADVANCED_BREP_SHAPE_REPRESENTATION ( 'bj300-16063', ( #50, #100 ), #184 ) ;
#31 = DIRECTION ( 'NONE',  ( 0.000000000000000000, 0.000000000000000000, 1.000000000000000000 ) ) ;
#32 = ADVANCED_FACE ( 'NONE', ( #133, #291 ), #264, .F. ) ;
#33 = ORIENTED_EDGE ( 'NONE', *, *, #311, .T. ) ;
#34 = CIRCLE ( 'NONE', #307, 9.000000000000000000 ) ;
#35 = ORIENTED_EDGE ( 'NONE', *, *, #218, .T. ) ;
#36 = ORIENTED_EDGE ( 'NONE', *, *, #318, .F. ) ;
#37 = APPLICATION_CONTEXT ( 'configuration controlled 3d designs of mechanical parts and assemblies' ) ;
#38 = EDGE_LOOP ( 'NONE', ( #262, #146 ) ) ;
#39 = CIRCLE ( 'NONE', #132, 13.00000000000000000 ) ;
#40 = CC_DESIGN_APPROVAL ( #134, ( #322 ) ) ;
#41 = ORIENTED_EDGE ( 'NONE', *, *, #95, .F. ) ;
#42 = FACE_OUTER_BOUND ( 'NONE', #195, .T. ) ;
#43 = CARTESIAN_POINT ( 'NONE',  ( -9.000000000000000000, 1.102182119232617714E-15, 0.000000000000000000 ) ) ;
#44 = UNCERTAINTY_MEASURE_WITH_UNIT (LENGTH_MEASURE( 1.000000000000000082E-05 ), #135, 'distance_accuracy_value', 'NONE');
#45 = PRODUCT_DEFINITION_FORMATION_WITH_SPECIFIED_SOURCE ( 'ANY', '', #67, .NOT_KNOWN. ) ;
#46 = CARTESIAN_POINT ( 'NONE',  ( 9.000000000000000000, 0.000000000000000000, 15.00000000000000000 ) ) ;
#47 = DATE_AND_TIME ( #136, #59 ) ;
#48 = DIRECTION ( 'NONE',  ( 0.000000000000000000, 0.000000000000000000, 1.000000000000000000 ) ) ;
#49 = PERSON_AND_ORGANIZATION ( #191, #215 ) ;
#50 = MANIFOLD_SOLID_BREP ( 'Imported1', #271 ) ;
#51 = VERTEX_POINT ( 'NONE', #16 ) ;
#52 = COORDINATED_UNIVERSAL_TIME_OFFSET ( 9, 0, .AHEAD. ) ;
#53 = FACE_OUTER_BOUND ( 'NONE', #91, .T. ) ;
#54 = AXIS2_PLACEMENT_3D ( 'NONE', #304, #31, #182 ) ;
#55 = COORDINATED_UNIVERSAL_TIME_OFFSET ( 9, 0, .AHEAD. ) ;
#56 = CARTESIAN_POINT ( 'NONE',  ( 25.00000000000000000, 0.000000000000000000, 63.00000000000000000 ) ) ;
#57 = APPROVAL_ROLE ( '' ) ;
#58 = FACE_OUTER_BOUND ( 'NONE', #38, .T. ) ;
#59 = LOCAL_TIME ( 8, 51, 40.00000000000000000, #55 ) ;
#60 = EDGE_CURVE ( 'NONE', #51, #98, #11, .T. ) ;
#61 = CARTESIAN_POINT ( 'NONE',  ( 0.000000000000000000, 0.000000000000000000, 63.00000000000000000 ) ) ;
#62 = CC_DESIGN_PERSON_AND_ORGANIZATION_ASSIGNMENT ( #9, #200, ( #197 ) ) ;
#63 = ORIENTED_EDGE ( 'NONE', *, *, #311, .F. ) ;
#64 = VECTOR ( 'NONE', #170, 1000.000000000000000 ) ;
#65 = ORIENTED_EDGE ( 'NONE', *, *, #211, .T. ) ;
#66 = APPROVAL_PERSON_ORGANIZATION ( #49, #134, #221 ) ;
#67 = PRODUCT ( 'bj300-16063', 'bj300-16063', '', ( #173 ) ) ;
#68 = CARTESIAN_POINT ( 'NONE',  ( 0.000000000000000000, 0.000000000000000000, 63.00000000000000000 ) ) ;
#69 = EDGE_LOOP ( 'NONE', ( #256, #6, #188, #10 ) ) ;
#70 = DIRECTION ( 'NONE',  ( 1.000000000000000000, 0.000000000000000000, 0.000000000000000000 ) ) ;
#71 = VERTEX_POINT ( 'NONE', #46 ) ;
#72 = CIRCLE ( 'NONE', #160, 25.00000000000000000 ) ;
#73 = CC_DESIGN_PERSON_AND_ORGANIZATION_ASSIGNMENT ( #224, #298, ( #45 ) ) ;
#74 = LINE ( 'NONE', #171, #64 ) ;
#75 = PRODUCT_RELATED_PRODUCT_CATEGORY ( 'detail', '', ( #67 ) ) ;
#76 = DIRECTION ( 'NONE',  ( 0.000000000000000000, 0.000000000000000000, 1.000000000000000000 ) ) ;
#77 = ORIENTED_EDGE ( 'NONE', *, *, #218, .F. ) ;
#78 = CIRCLE ( 'NONE', #166, 13.00000000000000000 ) ;
#79 = CARTESIAN_POINT ( 'NONE',  ( 0.000000000000000000, 0.000000000000000000, 15.00000000000000000 ) ) ;
#80 = EDGE_LOOP ( 'NONE', ( #261, #270 ) ) ;
#81 = PLANE ( 'NONE',  #7 ) ;
#82 = CARTESIAN_POINT ( 'NONE',  ( 0.000000000000000000, 0.000000000000000000, 0.000000000000000000 ) ) ;
#83 = VECTOR ( 'NONE', #305, 1000.000000000000000 ) ;
#84 = DIRECTION ( 'NONE',  ( 0.000000000000000000, 0.000000000000000000, 1.000000000000000000 ) ) ;
#85 = APPROVAL_STATUS ( 'not_yet_approved' ) ;
#86 = FACE_OUTER_BOUND ( 'NONE', #121, .T. ) ;
#87 = CARTESIAN_POINT ( 'NONE',  ( -13.00000000000000000, 1.592040838891559095E-15, 40.00000000000000000 ) ) ;
#88 = EDGE_CURVE ( 'NONE', #193, #169, #313, .T. ) ;
#89 = CARTESIAN_POINT ( 'NONE',  ( 0.000000000000000000, 0.000000000000000000, 15.00000000000000000 ) ) ;
#90 = DIRECTION ( 'NONE',  ( 0.000000000000000000, 0.000000000000000000, 1.000000000000000000 ) ) ;
#91 = EDGE_LOOP ( 'NONE', ( #33, #283 ) ) ;
#92 = EDGE_LOOP ( 'NONE', ( #20, #97 ) ) ;
#93 = LOCAL_TIME ( 8, 51, 40.00000000000000000, #281 ) ;
#94 = ORIENTED_EDGE ( 'NONE', *, *, #60, .T. ) ;
#95 = EDGE_CURVE ( 'NONE', #151, #144, #301, .T. ) ;
#96 = DIRECTION ( 'NONE',  ( 1.000000000000000000, 0.000000000000000000, 0.000000000000000000 ) ) ;
#97 = ORIENTED_EDGE ( 'NONE', *, *, #318, .T. ) ;
#98 = VERTEX_POINT ( 'NONE', #101 ) ;
#99 = VECTOR ( 'NONE', #306, 1000.000000000000000 ) ;
#100 = AXIS2_PLACEMENT_3D ( 'NONE', #82, #276, #250 ) ;
#101 = CARTESIAN_POINT ( 'NONE',  ( 25.00000000000000000, 0.000000000000000000, 0.000000000000000000 ) ) ;
#102 = DIRECTION ( 'NONE',  ( 0.000000000000000000, 0.000000000000000000, 1.000000000000000000 ) ) ;
#103 = DATE_TIME_ROLE ( 'classification_date' ) ;
#104 = ORIENTED_EDGE ( 'NONE', *, *, #226, .F. ) ;
#105 =( NAMED_UNIT ( * ) SI_UNIT ( $, .STERADIAN. ) SOLID_ANGLE_UNIT ( ) );
#106 = DIRECTION ( 'NONE',  ( 0.000000000000000000, 0.000000000000000000, 1.000000000000000000 ) ) ;
#107 = PERSON_AND_ORGANIZATION ( #191, #215 ) ;
#108 = DIRECTION ( 'NONE',  ( 1.000000000000000000, 0.000000000000000000, 0.000000000000000000 ) ) ;
#109 =( NAMED_UNIT ( * ) PLANE_ANGLE_UNIT ( ) SI_UNIT ( $, .RADIAN. ) );
#110 = EDGE_CURVE ( 'NONE', #98, #169, #74, .T. ) ;
#111 = LINE ( 'NONE', #26, #99 ) ;
#112 = CARTESIAN_POINT ( 'NONE',  ( -9.000000000000000000, 1.102182119232617714E-15, 15.00000000000000000 ) ) ;
#113 = VECTOR ( 'NONE', #84, 1000.000000000000000 ) ;
#114 = DIRECTION ( 'NONE',  ( 1.000000000000000000, 0.000000000000000000, 0.000000000000000000 ) ) ;
#115 = EDGE_CURVE ( 'NONE', #4, #176, #12, .T. ) ;
#116 = AXIS2_PLACEMENT_3D ( 'NONE', #124, #296, #22 ) ;
#117 = CC_DESIGN_PERSON_AND_ORGANIZATION_ASSIGNMENT ( #272, #18, ( #45 ) ) ;
#118 = CC_DESIGN_APPROVAL ( #302, ( #197 ) ) ;
#119 = DIRECTION ( 'NONE',  ( 1.000000000000000000, 0.000000000000000000, 0.000000000000000000 ) ) ;
#120 = EDGE_LOOP ( 'NONE', ( #36, #149, #287, #77 ) ) ;
#121 = EDGE_LOOP ( 'NONE', ( #194, #167, #63, #147 ) ) ;
#122 = EDGE_CURVE ( 'NONE', #257, #315, #39, .T. ) ;
#123 = CALENDAR_DATE ( 2021, 25, 10 ) ;
#124 = CARTESIAN_POINT ( 'NONE',  ( 0.000000000000000000, 0.000000000000000000, 0.000000000000000000 ) ) ;
#125 = LOCAL_TIME ( 8, 51, 40.00000000000000000, #323 ) ;
#126 = CYLINDRICAL_SURFACE ( 'NONE', #286, 13.00000000000000000 ) ;
#127 = DESIGN_CONTEXT ( 'detailed design', #37, 'design' ) ;
#128 = ADVANCED_FACE ( 'NONE', ( #42 ), #217, .T. ) ;
#129 = CARTESIAN_POINT ( 'NONE',  ( 0.000000000000000000, 0.000000000000000000, 40.00000000000000000 ) ) ;
#130 = SECURITY_CLASSIFICATION_LEVEL ( 'unclassified' ) ;
#131 = FACE_OUTER_BOUND ( 'NONE', #165, .T. ) ;
#132 = AXIS2_PLACEMENT_3D ( 'NONE', #79, #102, #266 ) ;
#133 = FACE_BOUND ( 'NONE', #80, .T. ) ;
#134 = APPROVAL ( #181, 'UNSPECIFIED' ) ;
#135 =( LENGTH_UNIT ( ) NAMED_UNIT ( * ) SI_UNIT ( .MILLI., .METRE. ) );
#136 = CALENDAR_DATE ( 2021, 25, 10 ) ;
#137 = CARTESIAN_POINT ( 'NONE',  ( 13.00000000000000000, 0.000000000000000000, 40.00000000000000000 ) ) ;
#138 = DATE_AND_TIME ( #1, #93 ) ;
#139 = PLANE ( 'NONE',  #247 ) ;
#140 = CARTESIAN_POINT ( 'NONE',  ( 0.000000000000000000, 0.000000000000000000, 40.00000000000000000 ) ) ;
#141 = AXIS2_PLACEMENT_3D ( 'NONE', #198, #106, #216 ) ;
#142 = AXIS2_PLACEMENT_3D ( 'NONE', #129, #319, #201 ) ;
#143 = ORIENTED_EDGE ( 'NONE', *, *, #115, .F. ) ;
#144 = VERTEX_POINT ( 'NONE', #174 ) ;
#145 = EDGE_CURVE ( 'NONE', #176, #4, #34, .T. ) ;
#146 = ORIENTED_EDGE ( 'NONE', *, *, #60, .F. ) ;
#147 = ORIENTED_EDGE ( 'NONE', *, *, #110, .F. ) ;
#148 = ORIENTED_EDGE ( 'NONE', *, *, #95, .T. ) ;
#149 = ORIENTED_EDGE ( 'NONE', *, *, #226, .T. ) ;
#150 = CIRCLE ( 'NONE', #284, 9.000000000000000000 ) ;
#151 = VERTEX_POINT ( 'NONE', #277 ) ;
#152 = PERSON_AND_ORGANIZATION ( #191, #215 ) ;
#153 = DIRECTION ( 'NONE',  ( 1.000000000000000000, 0.000000000000000000, 0.000000000000000000 ) ) ;
#154 = PERSON_AND_ORGANIZATION_ROLE ( 'design_owner' ) ;
#155 = AXIS2_PLACEMENT_3D ( 'NONE', #156, #246, #324 ) ;
#156 = CARTESIAN_POINT ( 'NONE',  ( 13.00000000000000000, 0.000000000000000000, 15.00000000000000000 ) ) ;
#157 = DIRECTION ( 'NONE',  ( -1.000000000000000000, 0.000000000000000000, 0.000000000000000000 ) ) ;
#158 = FACE_OUTER_BOUND ( 'NONE', #69, .T. ) ;
#159 = CARTESIAN_POINT ( 'NONE',  ( 9.000000000000000000, 0.000000000000000000, 0.000000000000000000 ) ) ;
#160 = AXIS2_PLACEMENT_3D ( 'NONE', #68, #192, #70 ) ;
#161 = CARTESIAN_POINT ( 'NONE',  ( 13.00000000000000000, 0.000000000000000000, 15.00000000000000000 ) ) ;
#162 = APPROVAL_DATE_TIME ( #138, #302 ) ;
#163 = AXIS2_PLACEMENT_3D ( 'NONE', #316, #17, #317 ) ;
#164 = ADVANCED_FACE ( 'NONE', ( #58, #275 ), #139, .F. ) ;
#165 = EDGE_LOOP ( 'NONE', ( #104, #233, #35, #148 ) ) ;
#166 = AXIS2_PLACEMENT_3D ( 'NONE', #329, #187, #320 ) ;
#167 = ORIENTED_EDGE ( 'NONE', *, *, #14, .T. ) ;
#168 = VERTEX_POINT ( 'NONE', #112 ) ;
#169 = VERTEX_POINT ( 'NONE', #56 ) ;
#170 = DIRECTION ( 'NONE',  ( 0.000000000000000000, 0.000000000000000000, 1.000000000000000000 ) ) ;
#171 = CARTESIAN_POINT ( 'NONE',  ( 25.00000000000000000, 0.000000000000000000, 40.00000000000000000 ) ) ;
#172 = DIRECTION ( 'NONE',  ( 0.000000000000000000, 0.000000000000000000, 1.000000000000000000 ) ) ;
#173 = MECHANICAL_CONTEXT ( 'NONE', #295, 'mechanical' ) ;
#174 = CARTESIAN_POINT ( 'NONE',  ( -13.00000000000000000, 1.592040838891559095E-15, 63.00000000000000000 ) ) ;
#175 = ADVANCED_FACE ( 'NONE', ( #158 ), #279, .F. ) ;
#176 = VERTEX_POINT ( 'NONE', #253 ) ;
#177 = APPROVAL_DATE_TIME ( #47, #238 ) ;
#178 = CARTESIAN_POINT ( 'NONE',  ( 25.00000000000000000, 0.000000000000000000, 63.00000000000000000 ) ) ;
#179 = APPROVAL_DATE_TIME ( #326, #134 ) ;
#180 = FACE_OUTER_BOUND ( 'NONE', #120, .T. ) ;
#181 = APPROVAL_STATUS ( 'not_yet_approved' ) ;
#182 = DIRECTION ( 'NONE',  ( 1.000000000000000000, 0.000000000000000000, 0.000000000000000000 ) ) ;
#183 = DIRECTION ( 'NONE',  ( 0.000000000000000000, 0.000000000000000000, 1.000000000000000000 ) ) ;
#184 =( GEOMETRIC_REPRESENTATION_CONTEXT ( 3 ) GLOBAL_UNCERTAINTY_ASSIGNED_CONTEXT ( ( #44 ) ) GLOBAL_UNIT_ASSIGNED_CONTEXT ( ( #135, #109, #105 ) ) REPRESENTATION_CONTEXT ( 'NONE', 'WORKASPACE' ) );
#185 = DIRECTION ( 'NONE',  ( 0.000000000000000000, 0.000000000000000000, 1.000000000000000000 ) ) ;
#186 = PRODUCT_DEFINITION_SHAPE ( 'NONE', 'NONE',  #322 ) ;
#187 = DIRECTION ( 'NONE',  ( 0.000000000000000000, 0.000000000000000000, 1.000000000000000000 ) ) ;
#188 = ORIENTED_EDGE ( 'NONE', *, *, #293, .T. ) ;
#189 = DIRECTION ( 'NONE',  ( 0.000000000000000000, 0.000000000000000000, 1.000000000000000000 ) ) ;
#190 = LOCAL_TIME ( 8, 51, 40.00000000000000000, #243 ) ;
#191 = PERSON ( 'UNSPECIFIED', 'UNSPECIFIED', 'UNSPECIFIED', ('UNSPECIFIED'), ('UNSPECIFIED'), ('UNSPECIFIED') ) ;
#192 = DIRECTION ( 'NONE',  ( 0.000000000000000000, 0.000000000000000000, 1.000000000000000000 ) ) ;
#193 = VERTEX_POINT ( 'NONE', #29 ) ;
#194 = ORIENTED_EDGE ( 'NONE', *, *, #21, .T. ) ;
#195 = EDGE_LOOP ( 'NONE', ( #297, #94, #209, #220 ) ) ;
#196 = CIRCLE ( 'NONE', #231, 13.00000000000000000 ) ;
#197 = SECURITY_CLASSIFICATION ( '', '', #130 ) ;
#198 = CARTESIAN_POINT ( 'NONE',  ( 0.000000000000000000, 0.000000000000000000, 0.000000000000000000 ) ) ;
#199 = ORIENTED_EDGE ( 'NONE', *, *, #145, .T. ) ;
#200 = PERSON_AND_ORGANIZATION_ROLE ( 'classification_officer' ) ;
#201 = DIRECTION ( 'NONE',  ( 1.000000000000000000, 0.000000000000000000, 0.000000000000000000 ) ) ;
#202 = EDGE_CURVE ( 'NONE', #144, #151, #196, .T. ) ;
#203 = APPROVAL_PERSON_ORGANIZATION ( #267, #238, #57 ) ;
#204 = CARTESIAN_POINT ( 'NONE',  ( 0.000000000000000000, 0.000000000000000000, 0.000000000000000000 ) ) ;
#205 = DATE_AND_TIME ( #236, #190 ) ;
#206 = LINE ( 'NONE', #303, #113 ) ;
#207 = DIRECTION ( 'NONE',  ( 0.000000000000000000, 0.000000000000000000, 1.000000000000000000 ) ) ;
#208 = SHAPE_DEFINITION_REPRESENTATION ( #186, #30 ) ;
#209 = ORIENTED_EDGE ( 'NONE', *, *, #110, .T. ) ;
#210 = FACE_OUTER_BOUND ( 'NONE', #237, .T. ) ;
#211 = EDGE_CURVE ( 'NONE', #4, #168, #111, .T. ) ;
#212 = DATE_AND_TIME ( #123, #235 ) ;
#213 = AXIS2_PLACEMENT_3D ( 'NONE', #214, #292, #290 ) ;
#214 = CARTESIAN_POINT ( 'NONE',  ( 0.000000000000000000, 0.000000000000000000, 63.00000000000000000 ) ) ;
#215 = ORGANIZATION ( 'UNSPECIFIED', 'UNSPECIFIED', '' ) ;
#216 = DIRECTION ( 'NONE',  ( 1.000000000000000000, 0.000000000000000000, 0.000000000000000000 ) ) ;
#217 = CYLINDRICAL_SURFACE ( 'NONE', #142, 25.00000000000000000 ) ;
#218 = EDGE_CURVE ( 'NONE', #257, #151, #25, .T. ) ;
#219 = PERSON_AND_ORGANIZATION ( #191, #215 ) ;
#220 = ORIENTED_EDGE ( 'NONE', *, *, #88, .F. ) ;
#221 = APPROVAL_ROLE ( '' ) ;
#222 = DIRECTION ( 'NONE',  ( 1.000000000000000000, 0.000000000000000000, 0.000000000000000000 ) ) ;
#223 = CYLINDRICAL_SURFACE ( 'NONE', #232, 13.00000000000000000 ) ;
#224 = PERSON_AND_ORGANIZATION ( #191, #215 ) ;
#225 = CIRCLE ( 'NONE', #310, 9.000000000000000000 ) ;
#226 = EDGE_CURVE ( 'NONE', #315, #144, #327, .T. ) ;
#227 = CARTESIAN_POINT ( 'NONE',  ( 0.000000000000000000, 0.000000000000000000, 40.00000000000000000 ) ) ;
#228 = DIRECTION ( 'NONE',  ( 0.000000000000000000, 0.000000000000000000, 1.000000000000000000 ) ) ;
#229 = EDGE_CURVE ( 'NONE', #71, #168, #225, .T. ) ;
#230 = DIRECTION ( 'NONE',  ( 0.000000000000000000, 0.000000000000000000, 1.000000000000000000 ) ) ;
#231 = AXIS2_PLACEMENT_3D ( 'NONE', #61, #28, #251 ) ;
#232 = AXIS2_PLACEMENT_3D ( 'NONE', #140, #230, #108 ) ;
#233 = ORIENTED_EDGE ( 'NONE', *, *, #122, .F. ) ;
#234 = CYLINDRICAL_SURFACE ( 'NONE', #15, 9.000000000000000000 ) ;
#235 = LOCAL_TIME ( 8, 51, 40.00000000000000000, #52 ) ;
#236 = CALENDAR_DATE ( 2021, 25, 10 ) ;
#237 = EDGE_LOOP ( 'NONE', ( #143, #65, #258, #321 ) ) ;
#238 = APPROVAL ( #85, 'UNSPECIFIED' ) ;
#239 = ORIENTED_EDGE ( 'NONE', *, *, #202, .F. ) ;
#240 = CARTESIAN_POINT ( 'NONE',  ( -25.00000000000000000, 3.061616997868383043E-15, 40.00000000000000000 ) ) ;
#241 = CC_DESIGN_APPROVAL ( #238, ( #45 ) ) ;
#242 = DIRECTION ( 'NONE',  ( 0.000000000000000000, 0.000000000000000000, 1.000000000000000000 ) ) ;
#243 = COORDINATED_UNIVERSAL_TIME_OFFSET ( 9, 0, .AHEAD. ) ;
#244 = CARTESIAN_POINT ( 'NONE',  ( 0.000000000000000000, 0.000000000000000000, 40.00000000000000000 ) ) ;
#245 = DATE_TIME_ROLE ( 'creation_date' ) ;
#246 = DIRECTION ( 'NONE',  ( 0.000000000000000000, 0.000000000000000000, -1.000000000000000000 ) ) ;
#247 = AXIS2_PLACEMENT_3D ( 'NONE', #159, #185, #252 ) ;
#248 = APPROVAL_STATUS ( 'not_yet_approved' ) ;
#249 = CC_DESIGN_PERSON_AND_ORGANIZATION_ASSIGNMENT ( #107, #154, ( #67 ) ) ;
#250 = DIRECTION ( 'NONE',  ( 1.000000000000000000, 0.000000000000000000, 0.000000000000000000 ) ) ;
#251 = DIRECTION ( 'NONE',  ( 1.000000000000000000, 0.000000000000000000, 0.000000000000000000 ) ) ;
#252 = DIRECTION ( 'NONE',  ( 1.000000000000000000, 0.000000000000000000, 0.000000000000000000 ) ) ;
#253 = CARTESIAN_POINT ( 'NONE',  ( 9.000000000000000000, 0.000000000000000000, 0.000000000000000000 ) ) ;
#254 = CYLINDRICAL_SURFACE ( 'NONE', #54, 25.00000000000000000 ) ;
#255 = CARTESIAN_POINT ( 'NONE',  ( 0.000000000000000000, 0.000000000000000000, 15.00000000000000000 ) ) ;
#256 = ORIENTED_EDGE ( 'NONE', *, *, #211, .F. ) ;
#257 = VERTEX_POINT ( 'NONE', #161 ) ;
#258 = ORIENTED_EDGE ( 'NONE', *, *, #308, .T. ) ;
#259 = VECTOR ( 'NONE', #76, 1000.000000000000000 ) ;
#260 = CARTESIAN_POINT ( 'NONE',  ( -13.00000000000000000, 1.592040838891559095E-15, 15.00000000000000000 ) ) ;
#261 = ORIENTED_EDGE ( 'NONE', *, *, #229, .F. ) ;
#262 = ORIENTED_EDGE ( 'NONE', *, *, #21, .F. ) ;
#263 = DIRECTION ( 'NONE',  ( 1.000000000000000000, 0.000000000000000000, 0.000000000000000000 ) ) ;
#264 = PLANE ( 'NONE',  #155 ) ;
#265 = ADVANCED_FACE ( 'NONE', ( #86 ), #254, .T. ) ;
#266 = DIRECTION ( 'NONE',  ( 1.000000000000000000, 0.000000000000000000, 0.000000000000000000 ) ) ;
#267 = PERSON_AND_ORGANIZATION ( #191, #215 ) ;
#268 = CARTESIAN_POINT ( 'NONE',  ( 0.000000000000000000, 0.000000000000000000, 0.000000000000000000 ) ) ;
#269 = APPLICATION_PROTOCOL_DEFINITION ( 'international standard', 'config_control_design', 1994, #37 ) ;
#270 = ORIENTED_EDGE ( 'NONE', *, *, #308, .F. ) ;
#271 = CLOSED_SHELL ( 'NONE', ( #278, #265, #299, #32, #175, #164, #128, #285, #27 ) ) ;
#272 = PERSON_AND_ORGANIZATION ( #191, #215 ) ;
#273 = DIRECTION ( 'NONE',  ( 0.000000000000000000, 0.000000000000000000, -1.000000000000000000 ) ) ;
#274 = PERSON_AND_ORGANIZATION_ROLE ( 'creator' ) ;
#275 = FACE_BOUND ( 'NONE', #309, .T. ) ;
#276 = DIRECTION ( 'NONE',  ( 0.000000000000000000, 0.000000000000000000, 1.000000000000000000 ) ) ;
#277 = CARTESIAN_POINT ( 'NONE',  ( 13.00000000000000000, 0.000000000000000000, 63.00000000000000000 ) ) ;
#278 = ADVANCED_FACE ( 'NONE', ( #180 ), #223, .F. ) ;
#279 = CYLINDRICAL_SURFACE ( 'NONE', #288, 9.000000000000000000 ) ;
#280 = AXIS2_PLACEMENT_3D ( 'NONE', #204, #172, #263 ) ;
#281 = COORDINATED_UNIVERSAL_TIME_OFFSET ( 9, 0, .AHEAD. ) ;
#282 = CC_DESIGN_DATE_AND_TIME_ASSIGNMENT ( #205, #245, ( #322 ) ) ;
#283 = ORIENTED_EDGE ( 'NONE', *, *, #88, .T. ) ;
#284 = AXIS2_PLACEMENT_3D ( 'NONE', #255, #189, #96 ) ;
#285 = ADVANCED_FACE ( 'NONE', ( #300, #53 ), #81, .F. ) ;
#286 = AXIS2_PLACEMENT_3D ( 'NONE', #244, #242, #222 ) ;
#287 = ORIENTED_EDGE ( 'NONE', *, *, #202, .T. ) ;
#288 = AXIS2_PLACEMENT_3D ( 'NONE', #227, #183, #114 ) ;
#289 = CC_DESIGN_SECURITY_CLASSIFICATION ( #197, ( #45 ) ) ;
#290 = DIRECTION ( 'NONE',  ( 1.000000000000000000, 0.000000000000000000, 0.000000000000000000 ) ) ;
#291 = FACE_OUTER_BOUND ( 'NONE', #92, .T. ) ;
#292 = DIRECTION ( 'NONE',  ( 0.000000000000000000, 0.000000000000000000, 1.000000000000000000 ) ) ;
#293 = EDGE_CURVE ( 'NONE', #176, #71, #206, .T. ) ;
#294 = CALENDAR_DATE ( 2021, 25, 10 ) ;
#295 = APPLICATION_CONTEXT ( 'configuration controlled 3d designs of mechanical parts and assemblies' ) ;
#296 = DIRECTION ( 'NONE',  ( 0.000000000000000000, 0.000000000000000000, 1.000000000000000000 ) ) ;
#297 = ORIENTED_EDGE ( 'NONE', *, *, #14, .F. ) ;
#298 = PERSON_AND_ORGANIZATION_ROLE ( 'creator' ) ;
#299 = ADVANCED_FACE ( 'NONE', ( #210 ), #234, .F. ) ;
#300 = FACE_BOUND ( 'NONE', #312, .T. ) ;
#301 = CIRCLE ( 'NONE', #163, 13.00000000000000000 ) ;
#302 = APPROVAL ( #248, 'UNSPECIFIED' ) ;
#303 = CARTESIAN_POINT ( 'NONE',  ( 9.000000000000000000, 0.000000000000000000, 40.00000000000000000 ) ) ;
#304 = CARTESIAN_POINT ( 'NONE',  ( 0.000000000000000000, 0.000000000000000000, 40.00000000000000000 ) ) ;
#305 = DIRECTION ( 'NONE',  ( 0.000000000000000000, 0.000000000000000000, 1.000000000000000000 ) ) ;
#306 = DIRECTION ( 'NONE',  ( 0.000000000000000000, 0.000000000000000000, 1.000000000000000000 ) ) ;
#307 = AXIS2_PLACEMENT_3D ( 'NONE', #268, #48, #153 ) ;
#308 = EDGE_CURVE ( 'NONE', #168, #71, #150, .T. ) ;
#309 = EDGE_LOOP ( 'NONE', ( #199, #8 ) ) ;
#310 = AXIS2_PLACEMENT_3D ( 'NONE', #89, #207, #325 ) ;
#311 = EDGE_CURVE ( 'NONE', #169, #193, #72, .T. ) ;
#312 = EDGE_LOOP ( 'NONE', ( #41, #239 ) ) ;
#313 = CIRCLE ( 'NONE', #213, 25.00000000000000000 ) ;
#314 = APPLICATION_PROTOCOL_DEFINITION ( 'international standard', 'config_control_design', 1994, #295 ) ;
#315 = VERTEX_POINT ( 'NONE', #260 ) ;
#316 = CARTESIAN_POINT ( 'NONE',  ( 0.000000000000000000, 0.000000000000000000, 63.00000000000000000 ) ) ;
#317 = DIRECTION ( 'NONE',  ( 1.000000000000000000, 0.000000000000000000, 0.000000000000000000 ) ) ;
#318 = EDGE_CURVE ( 'NONE', #315, #257, #78, .T. ) ;
#319 = DIRECTION ( 'NONE',  ( 0.000000000000000000, 0.000000000000000000, 1.000000000000000000 ) ) ;
#320 = DIRECTION ( 'NONE',  ( 1.000000000000000000, 0.000000000000000000, 0.000000000000000000 ) ) ;
#321 = ORIENTED_EDGE ( 'NONE', *, *, #293, .F. ) ;
#322 = PRODUCT_DEFINITION ( 'UNKNOWN', '', #45, #127 ) ;
#323 = COORDINATED_UNIVERSAL_TIME_OFFSET ( 9, 0, .AHEAD. ) ;
#324 = DIRECTION ( 'NONE',  ( -1.000000000000000000, 0.000000000000000000, 0.000000000000000000 ) ) ;
#325 = DIRECTION ( 'NONE',  ( 1.000000000000000000, 0.000000000000000000, 0.000000000000000000 ) ) ;
#326 = DATE_AND_TIME ( #294, #125 ) ;
#327 = LINE ( 'NONE', #87, #3 ) ;
#328 = APPROVAL_PERSON_ORGANIZATION ( #219, #302, #24 ) ;
#329 = CARTESIAN_POINT ( 'NONE',  ( 0.000000000000000000, 0.000000000000000000, 15.00000000000000000 ) ) ;
ENDSEC;
END-ISO-10303-21;
