ISO-10303-21;
HEADER;
FILE_DESCRIPTION (( 'STEP AP203' ),
    '1' );
FILE_NAME ('bj300-12050.STEP',
    '2021-10-24T23:51:22',
    ( '' ),
    ( '' ),
    'SwSTEP 2.0',
    'SolidWorks 2020',
    '' );
FILE_SCHEMA (( 'CONFIG_CONTROL_DESIGN' ));
ENDSEC;

DATA;
#1 = DIRECTION ( 'NONE',  ( 0.000000000000000000, 0.000000000000000000, 1.000000000000000000 ) ) ;
#2 = CC_DESIGN_PERSON_AND_ORGANIZATION_ASSIGNMENT ( #310, #77, ( #185 ) ) ;
#3 = CARTESIAN_POINT ( 'NONE',  ( 0.000000000000000000, 0.000000000000000000, 0.000000000000000000 ) ) ;
#4 = CARTESIAN_POINT ( 'NONE',  ( 0.000000000000000000, 0.000000000000000000, 50.00000000000000000 ) ) ;
#5 = AXIS2_PLACEMENT_3D ( 'NONE', #272, #15, #93 ) ;
#6 = ORIENTED_EDGE ( 'NONE', *, *, #147, .T. ) ;
#7 = CARTESIAN_POINT ( 'NONE',  ( 0.000000000000000000, 0.000000000000000000, 0.000000000000000000 ) ) ;
#8 = EDGE_LOOP ( 'NONE', ( #54, #20 ) ) ;
#9 = ORIENTED_EDGE ( 'NONE', *, *, #188, .F. ) ;
#10 = DIRECTION ( 'NONE',  ( 1.000000000000000000, 0.000000000000000000, 0.000000000000000000 ) ) ;
#11 = FACE_OUTER_BOUND ( 'NONE', #263, .T. ) ;
#12 = PRODUCT_RELATED_PRODUCT_CATEGORY ( 'detail', '', ( #320 ) ) ;
#13 = CALENDAR_DATE ( 2021, 25, 10 ) ;
#14 = DIRECTION ( 'NONE',  ( 0.000000000000000000, 0.000000000000000000, 1.000000000000000000 ) ) ;
#15 = DIRECTION ( 'NONE',  ( 0.000000000000000000, 0.000000000000000000, 1.000000000000000000 ) ) ;
#16 = DIRECTION ( 'NONE',  ( 0.000000000000000000, 0.000000000000000000, -1.000000000000000000 ) ) ;
#17 = ORIENTED_EDGE ( 'NONE', *, *, #290, .T. ) ;
#18 = CC_DESIGN_APPROVAL ( #88, ( #292 ) ) ;
#19 = CARTESIAN_POINT ( 'NONE',  ( -10.00000000000000000, 1.224646799147353256E-15, 40.00000000000000000 ) ) ;
#20 = ORIENTED_EDGE ( 'NONE', *, *, #218, .T. ) ;
#21 = ORIENTED_EDGE ( 'NONE', *, *, #23, .F. ) ;
#22 = AXIS2_PLACEMENT_3D ( 'NONE', #7, #305, #284 ) ;
#23 = EDGE_CURVE ( 'NONE', #154, #125, #55, .T. ) ;
#24 = CARTESIAN_POINT ( 'NONE',  ( 7.000000000000000000, 0.000000000000000000, 40.00000000000000000 ) ) ;
#25 = VERTEX_POINT ( 'NONE', #76 ) ;
#26 = VECTOR ( 'NONE', #48, 1000.000000000000000 ) ;
#27 = ORIENTED_EDGE ( 'NONE', *, *, #170, .T. ) ;
#28 = APPROVAL_ROLE ( '' ) ;
#29 = EDGE_CURVE ( 'NONE', #126, #227, #248, .T. ) ;
#30 = LOCAL_TIME ( 8, 51, 22.00000000000000000, #127 ) ;
#31 = PERSON_AND_ORGANIZATION_ROLE ( 'classification_officer' ) ;
#32 = AXIS2_PLACEMENT_3D ( 'NONE', #65, #171, #47 ) ;
#33 = LINE ( 'NONE', #134, #80 ) ;
#34 = PLANE ( 'NONE',  #59 ) ;
#35 = APPROVAL_STATUS ( 'not_yet_approved' ) ;
#36 = FACE_OUTER_BOUND ( 'NONE', #327, .T. ) ;
#37 = DIRECTION ( 'NONE',  ( 1.000000000000000000, 0.000000000000000000, 0.000000000000000000 ) ) ;
#38 = ADVANCED_FACE ( 'NONE', ( #204 ), #287, .F. ) ;
#39 = FACE_OUTER_BOUND ( 'NONE', #74, .T. ) ;
#40 = ORIENTED_EDGE ( 'NONE', *, *, #269, .F. ) ;
#41 = FACE_OUTER_BOUND ( 'NONE', #143, .T. ) ;
#42 = ORIENTED_EDGE ( 'NONE', *, *, #66, .F. ) ;
#43 =( GEOMETRIC_REPRESENTATION_CONTEXT ( 3 ) GLOBAL_UNCERTAINTY_ASSIGNED_CONTEXT ( ( #201 ) ) GLOBAL_UNIT_ASSIGNED_CONTEXT ( ( #131, #308, #232 ) ) REPRESENTATION_CONTEXT ( 'NONE', 'WORKASPACE' ) );
#44 = CYLINDRICAL_SURFACE ( 'NONE', #213, 20.00000000000000000 ) ;
#45 = EDGE_CURVE ( 'NONE', #25, #46, #279, .T. ) ;
#46 = VERTEX_POINT ( 'NONE', #210 ) ;
#47 = DIRECTION ( 'NONE',  ( 1.000000000000000000, 0.000000000000000000, 0.000000000000000000 ) ) ;
#48 = DIRECTION ( 'NONE',  ( 0.000000000000000000, 0.000000000000000000, 1.000000000000000000 ) ) ;
#49 = PERSON_AND_ORGANIZATION_ROLE ( 'design_owner' ) ;
#50 = CARTESIAN_POINT ( 'NONE',  ( 0.000000000000000000, 0.000000000000000000, 40.00000000000000000 ) ) ;
#51 = ORIENTED_EDGE ( 'NONE', *, *, #188, .T. ) ;
#52 = LOCAL_TIME ( 8, 51, 22.00000000000000000, #277 ) ;
#53 = APPROVAL_STATUS ( 'not_yet_approved' ) ;
#54 = ORIENTED_EDGE ( 'NONE', *, *, #23, .T. ) ;
#55 = CIRCLE ( 'NONE', #307, 20.00000000000000000 ) ;
#56 = DIRECTION ( 'NONE',  ( 0.000000000000000000, 0.000000000000000000, 1.000000000000000000 ) ) ;
#57 = DATE_AND_TIME ( #108, #282 ) ;
#58 = DIRECTION ( 'NONE',  ( 0.000000000000000000, 0.000000000000000000, 1.000000000000000000 ) ) ;
#59 = AXIS2_PLACEMENT_3D ( 'NONE', #267, #245, #268 ) ;
#60 = PERSON_AND_ORGANIZATION_ROLE ( 'creator' ) ;
#61 = DIRECTION ( 'NONE',  ( 1.000000000000000000, 0.000000000000000000, 0.000000000000000000 ) ) ;
#62 = EDGE_CURVE ( 'NONE', #91, #300, #151, .T. ) ;
#63 = CARTESIAN_POINT ( 'NONE',  ( -7.000000000000000000, 8.572527594031473190E-16, 40.00000000000000000 ) ) ;
#64 = EDGE_LOOP ( 'NONE', ( #274, #102, #99, #95 ) ) ;
#65 = CARTESIAN_POINT ( 'NONE',  ( 0.000000000000000000, 0.000000000000000000, 40.00000000000000000 ) ) ;
#66 = EDGE_CURVE ( 'NONE', #25, #186, #168, .T. ) ;
#67 = CARTESIAN_POINT ( 'NONE',  ( 20.00000000000000000, 0.000000000000000000, 40.00000000000000000 ) ) ;
#68 = AXIS2_PLACEMENT_3D ( 'NONE', #189, #115, #216 ) ;
#69 = CC_DESIGN_APPROVAL ( #229, ( #185 ) ) ;
#70 = LINE ( 'NONE', #19, #142 ) ;
#71 = ORIENTED_EDGE ( 'NONE', *, *, #262, .T. ) ;
#72 = ORIENTED_EDGE ( 'NONE', *, *, #203, .T. ) ;
#73 = LOCAL_TIME ( 8, 51, 22.00000000000000000, #244 ) ;
#74 = EDGE_LOOP ( 'NONE', ( #304, #17 ) ) ;
#75 = PERSON_AND_ORGANIZATION ( #238, #215 ) ;
#76 = CARTESIAN_POINT ( 'NONE',  ( 10.00000000000000000, 0.000000000000000000, 12.00000000000000000 ) ) ;
#77 = PERSON_AND_ORGANIZATION_ROLE ( 'design_supplier' ) ;
#78 = CARTESIAN_POINT ( 'NONE',  ( 0.000000000000000000, 0.000000000000000000, 40.00000000000000000 ) ) ;
#79 = DIRECTION ( 'NONE',  ( 0.000000000000000000, 0.000000000000000000, 1.000000000000000000 ) ) ;
#80 = VECTOR ( 'NONE', #240, 1000.000000000000000 ) ;
#81 = AXIS2_PLACEMENT_3D ( 'NONE', #3, #98, #129 ) ;
#82 = DIRECTION ( 'NONE',  ( 0.000000000000000000, 0.000000000000000000, 1.000000000000000000 ) ) ;
#83 = DATE_AND_TIME ( #319, #30 ) ;
#84 = LINE ( 'NONE', #63, #259 ) ;
#85 = DATE_AND_TIME ( #13, #73 ) ;
#86 = DIRECTION ( 'NONE',  ( 1.000000000000000000, 0.000000000000000000, 0.000000000000000000 ) ) ;
#87 = FACE_BOUND ( 'NONE', #254, .T. ) ;
#88 = APPROVAL ( #112, 'UNSPECIFIED' ) ;
#89 = SHAPE_DEFINITION_REPRESENTATION ( #246, #295 ) ;
#90 = CARTESIAN_POINT ( 'NONE',  ( 7.000000000000000000, 0.000000000000000000, 12.00000000000000000 ) ) ;
#91 = VERTEX_POINT ( 'NONE', #192 ) ;
#92 = AXIS2_PLACEMENT_3D ( 'NONE', #289, #14, #86 ) ;
#93 = DIRECTION ( 'NONE',  ( 1.000000000000000000, 0.000000000000000000, 0.000000000000000000 ) ) ;
#94 = DIRECTION ( 'NONE',  ( 1.000000000000000000, 0.000000000000000000, 0.000000000000000000 ) ) ;
#95 = ORIENTED_EDGE ( 'NONE', *, *, #218, .F. ) ;
#96 = DIRECTION ( 'NONE',  ( 1.000000000000000000, 0.000000000000000000, 0.000000000000000000 ) ) ;
#97 = ORIENTED_EDGE ( 'NONE', *, *, #231, .F. ) ;
#98 = DIRECTION ( 'NONE',  ( 0.000000000000000000, 0.000000000000000000, 1.000000000000000000 ) ) ;
#99 = ORIENTED_EDGE ( 'NONE', *, *, #226, .T. ) ;
#100 = EDGE_LOOP ( 'NONE', ( #97, #141, #149, #27 ) ) ;
#101 = ADVANCED_FACE ( 'NONE', ( #187, #166 ), #34, .F. ) ;
#102 = ORIENTED_EDGE ( 'NONE', *, *, #269, .T. ) ;
#103 = APPROVAL ( #53, 'UNSPECIFIED' ) ;
#104 = ORIENTED_EDGE ( 'NONE', *, *, #329, .F. ) ;
#105 = LOCAL_TIME ( 8, 51, 22.00000000000000000, #217 ) ;
#106 = PERSON_AND_ORGANIZATION ( #238, #215 ) ;
#107 = DIRECTION ( 'NONE',  ( 1.000000000000000000, 0.000000000000000000, 0.000000000000000000 ) ) ;
#108 = CALENDAR_DATE ( 2021, 25, 10 ) ;
#109 = PLANE ( 'NONE',  #316 ) ;
#110 = AXIS2_PLACEMENT_3D ( 'NONE', #50, #156, #206 ) ;
#111 = ADVANCED_FACE ( 'NONE', ( #36 ), #163, .F. ) ;
#112 = APPROVAL_STATUS ( 'not_yet_approved' ) ;
#113 = CARTESIAN_POINT ( 'NONE',  ( -20.00000000000000000, 2.449293598294706513E-15, 0.000000000000000000 ) ) ;
#114 = AXIS2_PLACEMENT_3D ( 'NONE', #169, #324, #96 ) ;
#115 = DIRECTION ( 'NONE',  ( 0.000000000000000000, 0.000000000000000000, 1.000000000000000000 ) ) ;
#116 = CARTESIAN_POINT ( 'NONE',  ( 0.000000000000000000, 0.000000000000000000, 40.00000000000000000 ) ) ;
#117 = DIRECTION ( 'NONE',  ( 0.000000000000000000, 0.000000000000000000, 1.000000000000000000 ) ) ;
#118 = DIRECTION ( 'NONE',  ( -1.000000000000000000, 0.000000000000000000, 0.000000000000000000 ) ) ;
#119 = AXIS2_PLACEMENT_3D ( 'NONE', #177, #117, #220 ) ;
#120 = DIRECTION ( 'NONE',  ( 0.000000000000000000, 0.000000000000000000, 1.000000000000000000 ) ) ;
#121 = EDGE_LOOP ( 'NONE', ( #71, #197 ) ) ;
#122 = DIRECTION ( 'NONE',  ( 1.000000000000000000, 0.000000000000000000, 0.000000000000000000 ) ) ;
#123 = DIRECTION ( 'NONE',  ( 0.000000000000000000, 0.000000000000000000, 1.000000000000000000 ) ) ;
#124 = EDGE_CURVE ( 'NONE', #130, #186, #193, .T. ) ;
#125 = VERTEX_POINT ( 'NONE', #139 ) ;
#126 = VERTEX_POINT ( 'NONE', #247 ) ;
#127 = COORDINATED_UNIVERSAL_TIME_OFFSET ( 9, 0, .AHEAD. ) ;
#128 = AXIS2_PLACEMENT_3D ( 'NONE', #278, #16, #118 ) ;
#129 = DIRECTION ( 'NONE',  ( 1.000000000000000000, 0.000000000000000000, 0.000000000000000000 ) ) ;
#130 = VERTEX_POINT ( 'NONE', #209 ) ;
#131 =( LENGTH_UNIT ( ) NAMED_UNIT ( * ) SI_UNIT ( .MILLI., .METRE. ) );
#132 = COORDINATED_UNIVERSAL_TIME_OFFSET ( 9, 0, .AHEAD. ) ;
#133 = ADVANCED_FACE ( 'NONE', ( #311 ), #241, .F. ) ;
#134 = CARTESIAN_POINT ( 'NONE',  ( -20.00000000000000000, 2.449293598294706513E-15, 40.00000000000000000 ) ) ;
#135 = PERSON_AND_ORGANIZATION ( #238, #215 ) ;
#136 = CARTESIAN_POINT ( 'NONE',  ( 10.00000000000000000, 0.000000000000000000, 40.00000000000000000 ) ) ;
#137 = CARTESIAN_POINT ( 'NONE',  ( 20.00000000000000000, 0.000000000000000000, 50.00000000000000000 ) ) ;
#138 = APPROVAL_ROLE ( '' ) ;
#139 = CARTESIAN_POINT ( 'NONE',  ( -20.00000000000000000, 2.449293598294706513E-15, 50.00000000000000000 ) ) ;
#140 = DIRECTION ( 'NONE',  ( 1.000000000000000000, 0.000000000000000000, 0.000000000000000000 ) ) ;
#141 = ORIENTED_EDGE ( 'NONE', *, *, #45, .F. ) ;
#142 = VECTOR ( 'NONE', #120, 1000.000000000000000 ) ;
#143 = EDGE_LOOP ( 'NONE', ( #283, #6, #21, #222 ) ) ;
#144 = CC_DESIGN_PERSON_AND_ORGANIZATION_ASSIGNMENT ( #75, #49, ( #320 ) ) ;
#145 = CARTESIAN_POINT ( 'NONE',  ( 7.000000000000000000, 0.000000000000000000, 0.000000000000000000 ) ) ;
#146 = EDGE_LOOP ( 'NONE', ( #293, #72, #309, #199 ) ) ;
#147 = EDGE_CURVE ( 'NONE', #182, #125, #33, .T. ) ;
#148 = DIRECTION ( 'NONE',  ( 0.000000000000000000, 0.000000000000000000, 1.000000000000000000 ) ) ;
#149 = ORIENTED_EDGE ( 'NONE', *, *, #66, .T. ) ;
#150 = ORIENTED_EDGE ( 'NONE', *, *, #290, .F. ) ;
#151 = CIRCLE ( 'NONE', #92, 7.000000000000000000 ) ;
#152 = APPLICATION_PROTOCOL_DEFINITION ( 'international standard', 'config_control_design', 1994, #190 ) ;
#153 = EDGE_LOOP ( 'NONE', ( #235, #306 ) ) ;
#154 = VERTEX_POINT ( 'NONE', #137 ) ;
#155 = CC_DESIGN_APPROVAL ( #103, ( #296 ) ) ;
#156 = DIRECTION ( 'NONE',  ( 0.000000000000000000, 0.000000000000000000, 1.000000000000000000 ) ) ;
#157 = ADVANCED_FACE ( 'NONE', ( #11, #237 ), #109, .F. ) ;
#158 = SECURITY_CLASSIFICATION_LEVEL ( 'unclassified' ) ;
#159 = DIRECTION ( 'NONE',  ( 0.000000000000000000, 0.000000000000000000, 1.000000000000000000 ) ) ;
#160 = CIRCLE ( 'NONE', #167, 20.00000000000000000 ) ;
#161 = PERSON_AND_ORGANIZATION ( #238, #215 ) ;
#162 = DIRECTION ( 'NONE',  ( 1.000000000000000000, 0.000000000000000000, 0.000000000000000000 ) ) ;
#163 = CYLINDRICAL_SURFACE ( 'NONE', #198, 10.00000000000000000 ) ;
#164 = CLOSED_SHELL ( 'NONE', ( #111, #205, #318, #298, #38, #157, #302, #101, #133 ) ) ;
#165 = DATE_AND_TIME ( #322, #105 ) ;
#166 = FACE_OUTER_BOUND ( 'NONE', #8, .T. ) ;
#167 = AXIS2_PLACEMENT_3D ( 'NONE', #252, #326, #94 ) ;
#168 = LINE ( 'NONE', #136, #285 ) ;
#169 = CARTESIAN_POINT ( 'NONE',  ( 0.000000000000000000, 0.000000000000000000, 0.000000000000000000 ) ) ;
#170 = EDGE_CURVE ( 'NONE', #186, #130, #314, .T. ) ;
#171 = DIRECTION ( 'NONE',  ( 0.000000000000000000, 0.000000000000000000, 1.000000000000000000 ) ) ;
#172 = DATE_AND_TIME ( #196, #52 ) ;
#173 = AXIS2_PLACEMENT_3D ( 'NONE', #291, #58, #162 ) ;
#174 = APPLICATION_CONTEXT ( 'configuration controlled 3d designs of mechanical parts and assemblies' ) ;
#175 = DIRECTION ( 'NONE',  ( 1.000000000000000000, 0.000000000000000000, 0.000000000000000000 ) ) ;
#176 = CIRCLE ( 'NONE', #260, 20.00000000000000000 ) ;
#177 = CARTESIAN_POINT ( 'NONE',  ( 0.000000000000000000, 0.000000000000000000, 12.00000000000000000 ) ) ;
#178 = DIRECTION ( 'NONE',  ( 0.000000000000000000, 0.000000000000000000, 1.000000000000000000 ) ) ;
#179 = EDGE_LOOP ( 'NONE', ( #183, #286, #224, #51 ) ) ;
#180 = CIRCLE ( 'NONE', #119, 10.00000000000000000 ) ;
#181 = MECHANICAL_CONTEXT ( 'NONE', #174, 'mechanical' ) ;
#182 = VERTEX_POINT ( 'NONE', #113 ) ;
#183 = ORIENTED_EDGE ( 'NONE', *, *, #203, .F. ) ;
#184 = CC_DESIGN_PERSON_AND_ORGANIZATION_ASSIGNMENT ( #106, #236, ( #185 ) ) ;
#185 = PRODUCT_DEFINITION_FORMATION_WITH_SPECIFIED_SOURCE ( 'ANY', '', #320, .NOT_KNOWN. ) ;
#186 = VERTEX_POINT ( 'NONE', #315 ) ;
#187 = FACE_BOUND ( 'NONE', #153, .T. ) ;
#188 = EDGE_CURVE ( 'NONE', #300, #91, #212, .T. ) ;
#189 = CARTESIAN_POINT ( 'NONE',  ( 0.000000000000000000, 0.000000000000000000, 12.00000000000000000 ) ) ;
#190 = APPLICATION_CONTEXT ( 'configuration controlled 3d designs of mechanical parts and assemblies' ) ;
#191 = CC_DESIGN_DATE_AND_TIME_ASSIGNMENT ( #57, #266, ( #292 ) ) ;
#192 = CARTESIAN_POINT ( 'NONE',  ( -7.000000000000000000, 8.572527594031473190E-16, 12.00000000000000000 ) ) ;
#193 = CIRCLE ( 'NONE', #281, 10.00000000000000000 ) ;
#194 = DIRECTION ( 'NONE',  ( 0.000000000000000000, 0.000000000000000000, 1.000000000000000000 ) ) ;
#195 = FACE_OUTER_BOUND ( 'NONE', #146, .T. ) ;
#196 = CALENDAR_DATE ( 2021, 25, 10 ) ;
#197 = ORIENTED_EDGE ( 'NONE', *, *, #29, .T. ) ;
#198 = AXIS2_PLACEMENT_3D ( 'NONE', #116, #194, #107 ) ;
#199 = ORIENTED_EDGE ( 'NONE', *, *, #214, .F. ) ;
#200 = VERTEX_POINT ( 'NONE', #321 ) ;
#201 = UNCERTAINTY_MEASURE_WITH_UNIT (LENGTH_MEASURE( 1.000000000000000082E-05 ), #131, 'distance_accuracy_value', 'NONE');
#202 = DIRECTION ( 'NONE',  ( 1.000000000000000000, 0.000000000000000000, 0.000000000000000000 ) ) ;
#203 = EDGE_CURVE ( 'NONE', #126, #91, #84, .T. ) ;
#204 = FACE_OUTER_BOUND ( 'NONE', #179, .T. ) ;
#205 = ADVANCED_FACE ( 'NONE', ( #41 ), #44, .T. ) ;
#206 = DIRECTION ( 'NONE',  ( 1.000000000000000000, 0.000000000000000000, 0.000000000000000000 ) ) ;
#207 = APPROVAL_PERSON_ORGANIZATION ( #135, #88, #211 ) ;
#208 = APPROVAL_DATE_TIME ( #85, #229 ) ;
#209 = CARTESIAN_POINT ( 'NONE',  ( -10.00000000000000000, 1.224646799147353256E-15, 50.00000000000000000 ) ) ;
#210 = CARTESIAN_POINT ( 'NONE',  ( -10.00000000000000000, 1.224646799147353256E-15, 12.00000000000000000 ) ) ;
#211 = APPROVAL_ROLE ( '' ) ;
#212 = CIRCLE ( 'NONE', #68, 7.000000000000000000 ) ;
#213 = AXIS2_PLACEMENT_3D ( 'NONE', #253, #178, #122 ) ;
#214 = EDGE_CURVE ( 'NONE', #227, #300, #280, .T. ) ;
#215 = ORGANIZATION ( 'UNSPECIFIED', 'UNSPECIFIED', '' ) ;
#216 = DIRECTION ( 'NONE',  ( 1.000000000000000000, 0.000000000000000000, 0.000000000000000000 ) ) ;
#217 = COORDINATED_UNIVERSAL_TIME_OFFSET ( 9, 0, .AHEAD. ) ;
#218 = EDGE_CURVE ( 'NONE', #125, #154, #176, .T. ) ;
#219 = APPROVAL_PERSON_ORGANIZATION ( #234, #229, #138 ) ;
#220 = DIRECTION ( 'NONE',  ( 1.000000000000000000, 0.000000000000000000, 0.000000000000000000 ) ) ;
#221 = CC_DESIGN_PERSON_AND_ORGANIZATION_ASSIGNMENT ( #161, #60, ( #296 ) ) ;
#222 = ORIENTED_EDGE ( 'NONE', *, *, #226, .F. ) ;
#223 = PLANE ( 'NONE',  #128 ) ;
#224 = ORIENTED_EDGE ( 'NONE', *, *, #214, .T. ) ;
#225 = CYLINDRICAL_SURFACE ( 'NONE', #32, 20.00000000000000000 ) ;
#226 = EDGE_CURVE ( 'NONE', #200, #154, #323, .T. ) ;
#227 = VERTEX_POINT ( 'NONE', #145 ) ;
#228 = APPROVAL_PERSON_ORGANIZATION ( #258, #103, #28 ) ;
#229 = APPROVAL ( #35, 'UNSPECIFIED' ) ;
#230 = DIRECTION ( 'NONE',  ( 0.000000000000000000, 0.000000000000000000, 1.000000000000000000 ) ) ;
#231 = EDGE_CURVE ( 'NONE', #46, #130, #70, .T. ) ;
#232 =( NAMED_UNIT ( * ) SI_UNIT ( $, .STERADIAN. ) SOLID_ANGLE_UNIT ( ) );
#233 = CC_DESIGN_PERSON_AND_ORGANIZATION_ASSIGNMENT ( #264, #31, ( #292 ) ) ;
#234 = PERSON_AND_ORGANIZATION ( #238, #215 ) ;
#235 = ORIENTED_EDGE ( 'NONE', *, *, #170, .F. ) ;
#236 = PERSON_AND_ORGANIZATION_ROLE ( 'creator' ) ;
#237 = FACE_BOUND ( 'NONE', #121, .T. ) ;
#238 = PERSON ( 'UNSPECIFIED', 'UNSPECIFIED', 'UNSPECIFIED', ('UNSPECIFIED'), ('UNSPECIFIED'), ('UNSPECIFIED') ) ;
#239 = APPROVAL_DATE_TIME ( #83, #103 ) ;
#240 = DIRECTION ( 'NONE',  ( 0.000000000000000000, 0.000000000000000000, 1.000000000000000000 ) ) ;
#241 = CYLINDRICAL_SURFACE ( 'NONE', #275, 10.00000000000000000 ) ;
#242 = CC_DESIGN_DATE_AND_TIME_ASSIGNMENT ( #165, #312, ( #296 ) ) ;
#243 = VECTOR ( 'NONE', #1, 1000.000000000000000 ) ;
#244 = COORDINATED_UNIVERSAL_TIME_OFFSET ( 9, 0, .AHEAD. ) ;
#245 = DIRECTION ( 'NONE',  ( 0.000000000000000000, 0.000000000000000000, -1.000000000000000000 ) ) ;
#246 = PRODUCT_DEFINITION_SHAPE ( 'NONE', 'NONE',  #296 ) ;
#247 = CARTESIAN_POINT ( 'NONE',  ( -7.000000000000000000, 8.572527594031473190E-16, 0.000000000000000000 ) ) ;
#248 = CIRCLE ( 'NONE', #22, 7.000000000000000000 ) ;
#249 = MANIFOLD_SOLID_BREP ( 'Imported1', #164 ) ;
#250 = CARTESIAN_POINT ( 'NONE',  ( 0.000000000000000000, 0.000000000000000000, 50.00000000000000000 ) ) ;
#251 = APPROVAL_DATE_TIME ( #172, #88 ) ;
#252 = CARTESIAN_POINT ( 'NONE',  ( 0.000000000000000000, 0.000000000000000000, 0.000000000000000000 ) ) ;
#253 = CARTESIAN_POINT ( 'NONE',  ( 0.000000000000000000, 0.000000000000000000, 40.00000000000000000 ) ) ;
#254 = EDGE_LOOP ( 'NONE', ( #9, #255 ) ) ;
#255 = ORIENTED_EDGE ( 'NONE', *, *, #62, .F. ) ;
#256 = ORIENTED_EDGE ( 'NONE', *, *, #231, .T. ) ;
#257 = AXIS2_PLACEMENT_3D ( 'NONE', #288, #294, #61 ) ;
#258 = PERSON_AND_ORGANIZATION ( #238, #215 ) ;
#259 = VECTOR ( 'NONE', #123, 1000.000000000000000 ) ;
#260 = AXIS2_PLACEMENT_3D ( 'NONE', #250, #148, #140 ) ;
#261 = DESIGN_CONTEXT ( 'detailed design', #190, 'design' ) ;
#262 = EDGE_CURVE ( 'NONE', #227, #126, #270, .T. ) ;
#263 = EDGE_LOOP ( 'NONE', ( #104, #40 ) ) ;
#264 = PERSON_AND_ORGANIZATION ( #238, #215 ) ;
#265 = DIRECTION ( 'NONE',  ( 1.000000000000000000, 0.000000000000000000, 0.000000000000000000 ) ) ;
#266 = DATE_TIME_ROLE ( 'classification_date' ) ;
#267 = CARTESIAN_POINT ( 'NONE',  ( 20.00000000000000000, 0.000000000000000000, 50.00000000000000000 ) ) ;
#268 = DIRECTION ( 'NONE',  ( -1.000000000000000000, 0.000000000000000000, 0.000000000000000000 ) ) ;
#269 = EDGE_CURVE ( 'NONE', #182, #200, #276, .T. ) ;
#270 = CIRCLE ( 'NONE', #114, 7.000000000000000000 ) ;
#271 = CARTESIAN_POINT ( 'NONE',  ( 0.000000000000000000, 0.000000000000000000, 50.00000000000000000 ) ) ;
#272 = CARTESIAN_POINT ( 'NONE',  ( 0.000000000000000000, 0.000000000000000000, 0.000000000000000000 ) ) ;
#273 = CYLINDRICAL_SURFACE ( 'NONE', #317, 7.000000000000000000 ) ;
#274 = ORIENTED_EDGE ( 'NONE', *, *, #147, .F. ) ;
#275 = AXIS2_PLACEMENT_3D ( 'NONE', #78, #159, #265 ) ;
#276 = CIRCLE ( 'NONE', #5, 20.00000000000000000 ) ;
#277 = COORDINATED_UNIVERSAL_TIME_OFFSET ( 9, 0, .AHEAD. ) ;
#278 = CARTESIAN_POINT ( 'NONE',  ( 10.00000000000000000, 0.000000000000000000, 12.00000000000000000 ) ) ;
#279 = CIRCLE ( 'NONE', #257, 10.00000000000000000 ) ;
#280 = LINE ( 'NONE', #24, #26 ) ;
#281 = AXIS2_PLACEMENT_3D ( 'NONE', #271, #56, #37 ) ;
#282 = LOCAL_TIME ( 8, 51, 22.00000000000000000, #132 ) ;
#283 = ORIENTED_EDGE ( 'NONE', *, *, #329, .T. ) ;
#284 = DIRECTION ( 'NONE',  ( 1.000000000000000000, 0.000000000000000000, 0.000000000000000000 ) ) ;
#285 = VECTOR ( 'NONE', #82, 1000.000000000000000 ) ;
#286 = ORIENTED_EDGE ( 'NONE', *, *, #262, .F. ) ;
#287 = CYLINDRICAL_SURFACE ( 'NONE', #110, 7.000000000000000000 ) ;
#288 = CARTESIAN_POINT ( 'NONE',  ( 0.000000000000000000, 0.000000000000000000, 12.00000000000000000 ) ) ;
#289 = CARTESIAN_POINT ( 'NONE',  ( 0.000000000000000000, 0.000000000000000000, 12.00000000000000000 ) ) ;
#290 = EDGE_CURVE ( 'NONE', #46, #25, #180, .T. ) ;
#291 = CARTESIAN_POINT ( 'NONE',  ( 0.000000000000000000, 0.000000000000000000, 50.00000000000000000 ) ) ;
#292 = SECURITY_CLASSIFICATION ( '', '', #158 ) ;
#293 = ORIENTED_EDGE ( 'NONE', *, *, #29, .F. ) ;
#294 = DIRECTION ( 'NONE',  ( 0.000000000000000000, 0.000000000000000000, 1.000000000000000000 ) ) ;
#295 = ADVANCED_BREP_SHAPE_REPRESENTATION ( 'bj300-12050', ( #249, #81 ), #43 ) ;
#296 = PRODUCT_DEFINITION ( 'UNKNOWN', '', #185, #261 ) ;
#297 = CARTESIAN_POINT ( 'NONE',  ( 0.000000000000000000, 0.000000000000000000, 40.00000000000000000 ) ) ;
#298 = ADVANCED_FACE ( 'NONE', ( #87, #39 ), #223, .F. ) ;
#299 = DIRECTION ( 'NONE',  ( 0.000000000000000000, 0.000000000000000000, 1.000000000000000000 ) ) ;
#300 = VERTEX_POINT ( 'NONE', #90 ) ;
#301 = ORIENTED_EDGE ( 'NONE', *, *, #124, .T. ) ;
#302 = ADVANCED_FACE ( 'NONE', ( #325 ), #225, .T. ) ;
#303 = APPLICATION_PROTOCOL_DEFINITION ( 'international standard', 'config_control_design', 1994, #174 ) ;
#304 = ORIENTED_EDGE ( 'NONE', *, *, #45, .T. ) ;
#305 = DIRECTION ( 'NONE',  ( 0.000000000000000000, 0.000000000000000000, 1.000000000000000000 ) ) ;
#306 = ORIENTED_EDGE ( 'NONE', *, *, #124, .F. ) ;
#307 = AXIS2_PLACEMENT_3D ( 'NONE', #4, #230, #202 ) ;
#308 =( NAMED_UNIT ( * ) PLANE_ANGLE_UNIT ( ) SI_UNIT ( $, .RADIAN. ) );
#309 = ORIENTED_EDGE ( 'NONE', *, *, #62, .T. ) ;
#310 = PERSON_AND_ORGANIZATION ( #238, #215 ) ;
#311 = FACE_OUTER_BOUND ( 'NONE', #100, .T. ) ;
#312 = DATE_TIME_ROLE ( 'creation_date' ) ;
#313 = CARTESIAN_POINT ( 'NONE',  ( 7.000000000000000000, 0.000000000000000000, 0.000000000000000000 ) ) ;
#314 = CIRCLE ( 'NONE', #173, 10.00000000000000000 ) ;
#315 = CARTESIAN_POINT ( 'NONE',  ( 10.00000000000000000, 0.000000000000000000, 50.00000000000000000 ) ) ;
#316 = AXIS2_PLACEMENT_3D ( 'NONE', #313, #79, #10 ) ;
#317 = AXIS2_PLACEMENT_3D ( 'NONE', #297, #299, #175 ) ;
#318 = ADVANCED_FACE ( 'NONE', ( #195 ), #273, .F. ) ;
#319 = CALENDAR_DATE ( 2021, 25, 10 ) ;
#320 = PRODUCT ( 'bj300-12050', 'bj300-12050', '', ( #181 ) ) ;
#321 = CARTESIAN_POINT ( 'NONE',  ( 20.00000000000000000, 0.000000000000000000, 0.000000000000000000 ) ) ;
#322 = CALENDAR_DATE ( 2021, 25, 10 ) ;
#323 = LINE ( 'NONE', #67, #243 ) ;
#324 = DIRECTION ( 'NONE',  ( 0.000000000000000000, 0.000000000000000000, 1.000000000000000000 ) ) ;
#325 = FACE_OUTER_BOUND ( 'NONE', #64, .T. ) ;
#326 = DIRECTION ( 'NONE',  ( 0.000000000000000000, 0.000000000000000000, 1.000000000000000000 ) ) ;
#327 = EDGE_LOOP ( 'NONE', ( #150, #256, #301, #42 ) ) ;
#328 = CC_DESIGN_SECURITY_CLASSIFICATION ( #292, ( #185 ) ) ;
#329 = EDGE_CURVE ( 'NONE', #200, #182, #160, .T. ) ;
ENDSEC;
END-ISO-10303-21;
