ISO-10303-21;
HEADER;
FILE_DESCRIPTION (( 'STEP AP203' ),
    '1' );
FILE_NAME ('bj300-10020.STEP',
    '2021-10-24T23:51:01',
    ( '' ),
    ( '' ),
    'SwSTEP 2.0',
    'SolidWorks 2020',
    '' );
FILE_SCHEMA (( 'CONFIG_CONTROL_DESIGN' ));
ENDSEC;

DATA;
#1 = DIRECTION ( 'NONE',  ( 1.000000000000000000, 0.000000000000000000, 0.000000000000000000 ) ) ;
#2 = AXIS2_PLACEMENT_3D ( 'NONE', #71, #288, #44 ) ;
#3 = APPROVAL_PERSON_ORGANIZATION ( #111, #292, #257 ) ;
#4 = CARTESIAN_POINT ( 'NONE',  ( -16.00000000000000000, 1.959434878635765131E-15, 40.00000000000000000 ) ) ;
#5 = ORIENTED_EDGE ( 'NONE', *, *, #11, .T. ) ;
#6 = DIRECTION ( 'NONE',  ( 0.000000000000000000, 0.000000000000000000, 1.000000000000000000 ) ) ;
#7 = DIRECTION ( 'NONE',  ( 0.000000000000000000, 0.000000000000000000, 1.000000000000000000 ) ) ;
#8 = EDGE_LOOP ( 'NONE', ( #140, #302 ) ) ;
#9 = CIRCLE ( 'NONE', #230, 16.00000000000000000 ) ;
#10 = DIRECTION ( 'NONE',  ( 0.000000000000000000, 0.000000000000000000, 1.000000000000000000 ) ) ;
#11 = EDGE_CURVE ( 'NONE', #115, #118, #160, .T. ) ;
#12 = COORDINATED_UNIVERSAL_TIME_OFFSET ( 9, 0, .AHEAD. ) ;
#13 = MECHANICAL_CONTEXT ( 'NONE', #68, 'mechanical' ) ;
#14 = AXIS2_PLACEMENT_3D ( 'NONE', #189, #38, #266 ) ;
#15 = DATE_AND_TIME ( #109, #207 ) ;
#16 = ORIENTED_EDGE ( 'NONE', *, *, #135, .F. ) ;
#17 = CC_DESIGN_PERSON_AND_ORGANIZATION_ASSIGNMENT ( #80, #55, ( #42 ) ) ;
#18 = CALENDAR_DATE ( 2021, 25, 10 ) ;
#19 = AXIS2_PLACEMENT_3D ( 'NONE', #249, #185, #258 ) ;
#20 = FACE_BOUND ( 'NONE', #8, .T. ) ;
#21 = PERSON_AND_ORGANIZATION_ROLE ( 'design_owner' ) ;
#22 = DIRECTION ( 'NONE',  ( 1.000000000000000000, 0.000000000000000000, 0.000000000000000000 ) ) ;
#23 = DATE_TIME_ROLE ( 'creation_date' ) ;
#24 = EDGE_CURVE ( 'NONE', #32, #85, #59, .T. ) ;
#25 = CARTESIAN_POINT ( 'NONE',  ( 0.000000000000000000, 0.000000000000000000, 40.00000000000000000 ) ) ;
#26 = APPROVAL_PERSON_ORGANIZATION ( #272, #278, #123 ) ;
#27 = DIRECTION ( 'NONE',  ( 0.000000000000000000, 0.000000000000000000, -1.000000000000000000 ) ) ;
#28 = ORIENTED_EDGE ( 'NONE', *, *, #217, .F. ) ;
#29 = CYLINDRICAL_SURFACE ( 'NONE', #242, 9.000000000000000000 ) ;
#30 = PERSON ( 'UNSPECIFIED', 'UNSPECIFIED', 'UNSPECIFIED', ('UNSPECIFIED'), ('UNSPECIFIED'), ('UNSPECIFIED') ) ;
#31 = CARTESIAN_POINT ( 'NONE',  ( 5.500000000000000000, 0.000000000000000000, 9.000000000000000000 ) ) ;
#32 = VERTEX_POINT ( 'NONE', #149 ) ;
#33 = ORIENTED_EDGE ( 'NONE', *, *, #281, .T. ) ;
#34 = CARTESIAN_POINT ( 'NONE',  ( -16.00000000000000000, 1.959434878635765131E-15, 0.000000000000000000 ) ) ;
#35 = ORIENTED_EDGE ( 'NONE', *, *, #52, .F. ) ;
#36 = DATE_AND_TIME ( #284, #43 ) ;
#37 = VECTOR ( 'NONE', #166, 1000.000000000000000 ) ;
#38 = DIRECTION ( 'NONE',  ( 0.000000000000000000, 0.000000000000000000, 1.000000000000000000 ) ) ;
#39 =( NAMED_UNIT ( * ) SI_UNIT ( $, .STERADIAN. ) SOLID_ANGLE_UNIT ( ) );
#40 = ORIENTED_EDGE ( 'NONE', *, *, #287, .T. ) ;
#41 = CC_DESIGN_DATE_AND_TIME_ASSIGNMENT ( #50, #23, ( #248 ) ) ;
#42 = SECURITY_CLASSIFICATION ( '', '', #267 ) ;
#43 = LOCAL_TIME ( 8, 51, 1.000000000000000000, #12 ) ;
#44 = DIRECTION ( 'NONE',  ( 1.000000000000000000, 0.000000000000000000, 0.000000000000000000 ) ) ;
#45 = ORIENTED_EDGE ( 'NONE', *, *, #315, .T. ) ;
#46 = COORDINATED_UNIVERSAL_TIME_OFFSET ( 9, 0, .AHEAD. ) ;
#47 = DIRECTION ( 'NONE',  ( 0.000000000000000000, 0.000000000000000000, 1.000000000000000000 ) ) ;
#48 = AXIS2_PLACEMENT_3D ( 'NONE', #222, #329, #221 ) ;
#49 = FACE_OUTER_BOUND ( 'NONE', #223, .T. ) ;
#50 = DATE_AND_TIME ( #18, #285 ) ;
#51 = FACE_OUTER_BOUND ( 'NONE', #212, .T. ) ;
#52 = EDGE_CURVE ( 'NONE', #163, #72, #124, .T. ) ;
#53 = APPROVAL_DATE_TIME ( #191, #278 ) ;
#54 = PLANE ( 'NONE',  #250 ) ;
#55 = PERSON_AND_ORGANIZATION_ROLE ( 'classification_officer' ) ;
#56 = CIRCLE ( 'NONE', #229, 9.000000000000000000 ) ;
#57 = CARTESIAN_POINT ( 'NONE',  ( 0.000000000000000000, 0.000000000000000000, 9.000000000000000000 ) ) ;
#58 = CARTESIAN_POINT ( 'NONE',  ( 9.000000000000000000, 0.000000000000000000, 20.00000000000000000 ) ) ;
#59 = CIRCLE ( 'NONE', #269, 5.500000000000000000 ) ;
#60 = LINE ( 'NONE', #136, #254 ) ;
#61 = EDGE_LOOP ( 'NONE', ( #33, #106, #145, #35 ) ) ;
#62 = FACE_OUTER_BOUND ( 'NONE', #255, .T. ) ;
#63 = CARTESIAN_POINT ( 'NONE',  ( 0.000000000000000000, 0.000000000000000000, 0.000000000000000000 ) ) ;
#64 = ORIENTED_EDGE ( 'NONE', *, *, #287, .F. ) ;
#65 = VERTEX_POINT ( 'NONE', #152 ) ;
#66 = AXIS2_PLACEMENT_3D ( 'NONE', #96, #192, #293 ) ;
#67 = CYLINDRICAL_SURFACE ( 'NONE', #128, 16.00000000000000000 ) ;
#68 = APPLICATION_CONTEXT ( 'configuration controlled 3d designs of mechanical parts and assemblies' ) ;
#69 = ORIENTED_EDGE ( 'NONE', *, *, #11, .F. ) ;
#70 = CC_DESIGN_APPROVAL ( #215, ( #144 ) ) ;
#71 = CARTESIAN_POINT ( 'NONE',  ( 0.000000000000000000, 0.000000000000000000, 40.00000000000000000 ) ) ;
#72 = VERTEX_POINT ( 'NONE', #247 ) ;
#73 = CARTESIAN_POINT ( 'NONE',  ( 16.00000000000000000, 0.000000000000000000, 20.00000000000000000 ) ) ;
#74 = PERSON_AND_ORGANIZATION ( #30, #194 ) ;
#75 = DIRECTION ( 'NONE',  ( 1.000000000000000000, 0.000000000000000000, 0.000000000000000000 ) ) ;
#76 = AXIS2_PLACEMENT_3D ( 'NONE', #323, #98, #156 ) ;
#77 = DIRECTION ( 'NONE',  ( 0.000000000000000000, 0.000000000000000000, 1.000000000000000000 ) ) ;
#78 = CC_DESIGN_PERSON_AND_ORGANIZATION_ASSIGNMENT ( #74, #177, ( #144 ) ) ;
#79 = DIRECTION ( 'NONE',  ( 0.000000000000000000, 0.000000000000000000, 1.000000000000000000 ) ) ;
#80 = PERSON_AND_ORGANIZATION ( #30, #194 ) ;
#81 = DIRECTION ( 'NONE',  ( 1.000000000000000000, 0.000000000000000000, 0.000000000000000000 ) ) ;
#82 = DIRECTION ( 'NONE',  ( 1.000000000000000000, 0.000000000000000000, 0.000000000000000000 ) ) ;
#83 = DIRECTION ( 'NONE',  ( 0.000000000000000000, 0.000000000000000000, 1.000000000000000000 ) ) ;
#84 = CARTESIAN_POINT ( 'NONE',  ( 5.500000000000000000, 0.000000000000000000, 40.00000000000000000 ) ) ;
#85 = VERTEX_POINT ( 'NONE', #102 ) ;
#86 = LINE ( 'NONE', #286, #37 ) ;
#87 = ORIENTED_EDGE ( 'NONE', *, *, #275, .T. ) ;
#88 = DIRECTION ( 'NONE',  ( 1.000000000000000000, 0.000000000000000000, 0.000000000000000000 ) ) ;
#89 = ORIENTED_EDGE ( 'NONE', *, *, #208, .T. ) ;
#90 = CIRCLE ( 'NONE', #76, 9.000000000000000000 ) ;
#91 = ORIENTED_EDGE ( 'NONE', *, *, #275, .F. ) ;
#92 = APPROVAL_STATUS ( 'not_yet_approved' ) ;
#93 = ORIENTED_EDGE ( 'NONE', *, *, #205, .T. ) ;
#94 = ADVANCED_FACE ( 'NONE', ( #173, #197 ), #54, .F. ) ;
#95 = CALENDAR_DATE ( 2021, 25, 10 ) ;
#96 = CARTESIAN_POINT ( 'NONE',  ( 9.000000000000000000, 0.000000000000000000, 9.000000000000000000 ) ) ;
#97 = ADVANCED_FACE ( 'NONE', ( #270, #244 ), #129, .F. ) ;
#98 = DIRECTION ( 'NONE',  ( 0.000000000000000000, 0.000000000000000000, 1.000000000000000000 ) ) ;
#99 = LOCAL_TIME ( 8, 51, 1.000000000000000000, #220 ) ;
#100 = DIRECTION ( 'NONE',  ( 0.000000000000000000, 0.000000000000000000, 1.000000000000000000 ) ) ;
#101 = PERSON_AND_ORGANIZATION ( #30, #194 ) ;
#102 = CARTESIAN_POINT ( 'NONE',  ( -5.500000000000000000, 6.735557395310442023E-16, 0.000000000000000000 ) ) ;
#103 = DIRECTION ( 'NONE',  ( 0.000000000000000000, 0.000000000000000000, 1.000000000000000000 ) ) ;
#104 = AXIS2_PLACEMENT_3D ( 'NONE', #181, #225, #82 ) ;
#105 = DIRECTION ( 'NONE',  ( 0.000000000000000000, 0.000000000000000000, 1.000000000000000000 ) ) ;
#106 = ORIENTED_EDGE ( 'NONE', *, *, #260, .T. ) ;
#107 = CARTESIAN_POINT ( 'NONE',  ( 0.000000000000000000, 0.000000000000000000, 20.00000000000000000 ) ) ;
#108 = ORIENTED_EDGE ( 'NONE', *, *, #155, .F. ) ;
#109 = CALENDAR_DATE ( 2021, 25, 10 ) ;
#110 = DIRECTION ( 'NONE',  ( 1.000000000000000000, 0.000000000000000000, 0.000000000000000000 ) ) ;
#111 = PERSON_AND_ORGANIZATION ( #30, #194 ) ;
#112 = DIRECTION ( 'NONE',  ( 0.000000000000000000, 0.000000000000000000, 1.000000000000000000 ) ) ;
#113 = ORIENTED_EDGE ( 'NONE', *, *, #307, .F. ) ;
#114 = MANIFOLD_SOLID_BREP ( 'Imported1', #282 ) ;
#115 = VERTEX_POINT ( 'NONE', #296 ) ;
#116 = AXIS2_PLACEMENT_3D ( 'NONE', #57, #193, #148 ) ;
#117 = CYLINDRICAL_SURFACE ( 'NONE', #2, 16.00000000000000000 ) ;
#118 = VERTEX_POINT ( 'NONE', #146 ) ;
#119 = ADVANCED_FACE ( 'NONE', ( #49 ), #176, .F. ) ;
#120 = EDGE_LOOP ( 'NONE', ( #16, #87, #316, #108 ) ) ;
#121 = PRODUCT_DEFINITION_SHAPE ( 'NONE', 'NONE',  #248 ) ;
#122 = FACE_OUTER_BOUND ( 'NONE', #309, .T. ) ;
#123 = APPROVAL_ROLE ( '' ) ;
#124 = LINE ( 'NONE', #273, #178 ) ;
#125 = CARTESIAN_POINT ( 'NONE',  ( 0.000000000000000000, 0.000000000000000000, 9.000000000000000000 ) ) ;
#126 = DESIGN_CONTEXT ( 'detailed design', #200, 'design' ) ;
#127 = APPROVAL_ROLE ( '' ) ;
#128 = AXIS2_PLACEMENT_3D ( 'NONE', #235, #164, #314 ) ;
#129 = PLANE ( 'NONE',  #299 ) ;
#130 = DIRECTION ( 'NONE',  ( 0.000000000000000000, 0.000000000000000000, 1.000000000000000000 ) ) ;
#131 = CIRCLE ( 'NONE', #116, 9.000000000000000000 ) ;
#132 = APPROVAL_STATUS ( 'not_yet_approved' ) ;
#133 = AXIS2_PLACEMENT_3D ( 'NONE', #211, #188, #233 ) ;
#134 = CARTESIAN_POINT ( 'NONE',  ( -9.000000000000000000, 1.102182119232617714E-15, 20.00000000000000000 ) ) ;
#135 = EDGE_CURVE ( 'NONE', #118, #115, #131, .T. ) ;
#136 = CARTESIAN_POINT ( 'NONE',  ( -9.000000000000000000, 1.102182119232617714E-15, 40.00000000000000000 ) ) ;
#137 = ORIENTED_EDGE ( 'NONE', *, *, #307, .T. ) ;
#138 = ORIENTED_EDGE ( 'NONE', *, *, #24, .F. ) ;
#139 = VECTOR ( 'NONE', #105, 1000.000000000000000 ) ;
#140 = ORIENTED_EDGE ( 'NONE', *, *, #205, .F. ) ;
#141 = EDGE_LOOP ( 'NONE', ( #169, #28 ) ) ;
#142 = EDGE_CURVE ( 'NONE', #226, #72, #237, .T. ) ;
#143 = ORIENTED_EDGE ( 'NONE', *, *, #155, .T. ) ;
#144 = PRODUCT_DEFINITION_FORMATION_WITH_SPECIFIED_SOURCE ( 'ANY', '', #312, .NOT_KNOWN. ) ;
#145 = ORIENTED_EDGE ( 'NONE', *, *, #208, .F. ) ;
#146 = CARTESIAN_POINT ( 'NONE',  ( -9.000000000000000000, 1.102182119232617714E-15, 9.000000000000000000 ) ) ;
#147 = CC_DESIGN_DATE_AND_TIME_ASSIGNMENT ( #15, #175, ( #42 ) ) ;
#148 = DIRECTION ( 'NONE',  ( 1.000000000000000000, 0.000000000000000000, 0.000000000000000000 ) ) ;
#149 = CARTESIAN_POINT ( 'NONE',  ( 5.500000000000000000, 0.000000000000000000, 0.000000000000000000 ) ) ;
#150 = ADVANCED_FACE ( 'NONE', ( #51 ), #171, .F. ) ;
#151 = CARTESIAN_POINT ( 'NONE',  ( 0.000000000000000000, 0.000000000000000000, 20.00000000000000000 ) ) ;
#152 = CARTESIAN_POINT ( 'NONE',  ( -5.500000000000000000, 6.735557395310442023E-16, 9.000000000000000000 ) ) ;
#153 = SHAPE_DEFINITION_REPRESENTATION ( #121, #279 ) ;
#154 = DIRECTION ( 'NONE',  ( 1.000000000000000000, 0.000000000000000000, 0.000000000000000000 ) ) ;
#155 = EDGE_CURVE ( 'NONE', #115, #263, #276, .T. ) ;
#156 = DIRECTION ( 'NONE',  ( 1.000000000000000000, 0.000000000000000000, 0.000000000000000000 ) ) ;
#157 = ORIENTED_EDGE ( 'NONE', *, *, #142, .T. ) ;
#158 = APPROVAL_DATE_TIME ( #36, #292 ) ;
#159 = CARTESIAN_POINT ( 'NONE',  ( -16.00000000000000000, 1.959434878635765131E-15, 20.00000000000000000 ) ) ;
#160 = CIRCLE ( 'NONE', #190, 9.000000000000000000 ) ;
#161 =( NAMED_UNIT ( * ) PLANE_ANGLE_UNIT ( ) SI_UNIT ( $, .RADIAN. ) );
#162 = CC_DESIGN_APPROVAL ( #292, ( #42 ) ) ;
#163 = VERTEX_POINT ( 'NONE', #241 ) ;
#164 = DIRECTION ( 'NONE',  ( 0.000000000000000000, 0.000000000000000000, 1.000000000000000000 ) ) ;
#165 = ORIENTED_EDGE ( 'NONE', *, *, #24, .T. ) ;
#166 = DIRECTION ( 'NONE',  ( 0.000000000000000000, 0.000000000000000000, 1.000000000000000000 ) ) ;
#167 = CIRCLE ( 'NONE', #277, 16.00000000000000000 ) ;
#168 = FACE_OUTER_BOUND ( 'NONE', #320, .T. ) ;
#169 = ORIENTED_EDGE ( 'NONE', *, *, #281, .F. ) ;
#170 = APPROVAL_STATUS ( 'not_yet_approved' ) ;
#171 = CYLINDRICAL_SURFACE ( 'NONE', #290, 5.500000000000000000 ) ;
#172 = PERSON_AND_ORGANIZATION_ROLE ( 'design_supplier' ) ;
#173 = FACE_BOUND ( 'NONE', #238, .T. ) ;
#174 =( GEOMETRIC_REPRESENTATION_CONTEXT ( 3 ) GLOBAL_UNCERTAINTY_ASSIGNED_CONTEXT ( ( #310 ) ) GLOBAL_UNIT_ASSIGNED_CONTEXT ( ( #261, #161, #39 ) ) REPRESENTATION_CONTEXT ( 'NONE', 'WORKASPACE' ) );
#175 = DATE_TIME_ROLE ( 'classification_date' ) ;
#176 = CYLINDRICAL_SURFACE ( 'NONE', #48, 5.500000000000000000 ) ;
#177 = PERSON_AND_ORGANIZATION_ROLE ( 'creator' ) ;
#178 = VECTOR ( 'NONE', #100, 1000.000000000000000 ) ;
#179 = DIRECTION ( 'NONE',  ( -1.000000000000000000, 0.000000000000000000, 0.000000000000000000 ) ) ;
#180 = VECTOR ( 'NONE', #283, 1000.000000000000000 ) ;
#181 = CARTESIAN_POINT ( 'NONE',  ( 0.000000000000000000, 0.000000000000000000, 40.00000000000000000 ) ) ;
#182 = ORIENTED_EDGE ( 'NONE', *, *, #210, .T. ) ;
#183 = LOCAL_TIME ( 8, 51, 1.000000000000000000, #327 ) ;
#184 = ADVANCED_FACE ( 'NONE', ( #20, #122 ), #322, .F. ) ;
#185 = DIRECTION ( 'NONE',  ( 0.000000000000000000, 0.000000000000000000, 1.000000000000000000 ) ) ;
#186 = FACE_OUTER_BOUND ( 'NONE', #61, .T. ) ;
#187 = EDGE_CURVE ( 'NONE', #263, #252, #90, .T. ) ;
#188 = DIRECTION ( 'NONE',  ( 0.000000000000000000, 0.000000000000000000, 1.000000000000000000 ) ) ;
#189 = CARTESIAN_POINT ( 'NONE',  ( 0.000000000000000000, 0.000000000000000000, 0.000000000000000000 ) ) ;
#190 = AXIS2_PLACEMENT_3D ( 'NONE', #125, #77, #75 ) ;
#191 = DATE_AND_TIME ( #95, #99 ) ;
#192 = DIRECTION ( 'NONE',  ( 0.000000000000000000, 0.000000000000000000, -1.000000000000000000 ) ) ;
#193 = DIRECTION ( 'NONE',  ( 0.000000000000000000, 0.000000000000000000, 1.000000000000000000 ) ) ;
#194 = ORGANIZATION ( 'UNSPECIFIED', 'UNSPECIFIED', '' ) ;
#195 = DIRECTION ( 'NONE',  ( 1.000000000000000000, 0.000000000000000000, 0.000000000000000000 ) ) ;
#196 = CALENDAR_DATE ( 2021, 25, 10 ) ;
#197 = FACE_OUTER_BOUND ( 'NONE', #214, .T. ) ;
#198 = CARTESIAN_POINT ( 'NONE',  ( 9.000000000000000000, 0.000000000000000000, 40.00000000000000000 ) ) ;
#199 = CC_DESIGN_PERSON_AND_ORGANIZATION_ASSIGNMENT ( #317, #21, ( #312 ) ) ;
#200 = APPLICATION_CONTEXT ( 'configuration controlled 3d designs of mechanical parts and assemblies' ) ;
#201 = ORIENTED_EDGE ( 'NONE', *, *, #239, .F. ) ;
#202 = LINE ( 'NONE', #4, #180 ) ;
#203 = CARTESIAN_POINT ( 'NONE',  ( 0.000000000000000000, 0.000000000000000000, 0.000000000000000000 ) ) ;
#204 = VECTOR ( 'NONE', #268, 1000.000000000000000 ) ;
#205 = EDGE_CURVE ( 'NONE', #232, #65, #224, .T. ) ;
#206 = CC_DESIGN_APPROVAL ( #278, ( #248 ) ) ;
#207 = LOCAL_TIME ( 8, 51, 1.000000000000000000, #46 ) ;
#208 = EDGE_CURVE ( 'NONE', #72, #226, #9, .T. ) ;
#209 = ORIENTED_EDGE ( 'NONE', *, *, #52, .T. ) ;
#210 = EDGE_CURVE ( 'NONE', #32, #232, #303, .T. ) ;
#211 = CARTESIAN_POINT ( 'NONE',  ( 0.000000000000000000, 0.000000000000000000, 9.000000000000000000 ) ) ;
#212 = EDGE_LOOP ( 'NONE', ( #113, #40, #45, #262 ) ) ;
#213 = ORIENTED_EDGE ( 'NONE', *, *, #260, .F. ) ;
#214 = EDGE_LOOP ( 'NONE', ( #89, #157 ) ) ;
#215 = APPROVAL ( #170, 'UNSPECIFIED' ) ;
#216 = APPROVAL_DATE_TIME ( #294, #215 ) ;
#217 = EDGE_CURVE ( 'NONE', #234, #163, #167, .T. ) ;
#218 = DIRECTION ( 'NONE',  ( 1.000000000000000000, 0.000000000000000000, 0.000000000000000000 ) ) ;
#219 = AXIS2_PLACEMENT_3D ( 'NONE', #151, #103, #22 ) ;
#220 = COORDINATED_UNIVERSAL_TIME_OFFSET ( 9, 0, .AHEAD. ) ;
#221 = DIRECTION ( 'NONE',  ( 1.000000000000000000, 0.000000000000000000, 0.000000000000000000 ) ) ;
#222 = CARTESIAN_POINT ( 'NONE',  ( 0.000000000000000000, 0.000000000000000000, 40.00000000000000000 ) ) ;
#223 = EDGE_LOOP ( 'NONE', ( #64, #138, #182, #93 ) ) ;
#224 = CIRCLE ( 'NONE', #19, 5.500000000000000000 ) ;
#225 = DIRECTION ( 'NONE',  ( 0.000000000000000000, 0.000000000000000000, 1.000000000000000000 ) ) ;
#226 = VERTEX_POINT ( 'NONE', #159 ) ;
#227 = DIRECTION ( 'NONE',  ( 1.000000000000000000, 0.000000000000000000, 0.000000000000000000 ) ) ;
#228 = PRODUCT_RELATED_PRODUCT_CATEGORY ( 'detail', '', ( #312 ) ) ;
#229 = AXIS2_PLACEMENT_3D ( 'NONE', #107, #112, #154 ) ;
#230 = AXIS2_PLACEMENT_3D ( 'NONE', #280, #130, #1 ) ;
#231 = CYLINDRICAL_SURFACE ( 'NONE', #104, 9.000000000000000000 ) ;
#232 = VERTEX_POINT ( 'NONE', #31 ) ;
#233 = DIRECTION ( 'NONE',  ( 1.000000000000000000, 0.000000000000000000, 0.000000000000000000 ) ) ;
#234 = VERTEX_POINT ( 'NONE', #34 ) ;
#235 = CARTESIAN_POINT ( 'NONE',  ( 0.000000000000000000, 0.000000000000000000, 40.00000000000000000 ) ) ;
#236 = ORIENTED_EDGE ( 'NONE', *, *, #217, .T. ) ;
#237 = CIRCLE ( 'NONE', #219, 16.00000000000000000 ) ;
#238 = EDGE_LOOP ( 'NONE', ( #305, #201 ) ) ;
#239 = EDGE_CURVE ( 'NONE', #252, #263, #56, .T. ) ;
#240 = ORIENTED_EDGE ( 'NONE', *, *, #142, .F. ) ;
#241 = CARTESIAN_POINT ( 'NONE',  ( 16.00000000000000000, 0.000000000000000000, 0.000000000000000000 ) ) ;
#242 = AXIS2_PLACEMENT_3D ( 'NONE', #300, #7, #110 ) ;
#243 = ADVANCED_FACE ( 'NONE', ( #251 ), #29, .F. ) ;
#244 = FACE_BOUND ( 'NONE', #318, .T. ) ;
#245 = PERSON_AND_ORGANIZATION ( #30, #194 ) ;
#246 = PERSON_AND_ORGANIZATION_ROLE ( 'creator' ) ;
#247 = CARTESIAN_POINT ( 'NONE',  ( 16.00000000000000000, 0.000000000000000000, 20.00000000000000000 ) ) ;
#248 = PRODUCT_DEFINITION ( 'UNKNOWN', '', #144, #126 ) ;
#249 = CARTESIAN_POINT ( 'NONE',  ( 0.000000000000000000, 0.000000000000000000, 9.000000000000000000 ) ) ;
#250 = AXIS2_PLACEMENT_3D ( 'NONE', #73, #27, #179 ) ;
#251 = FACE_OUTER_BOUND ( 'NONE', #120, .T. ) ;
#252 = VERTEX_POINT ( 'NONE', #134 ) ;
#253 = ADVANCED_FACE ( 'NONE', ( #62 ), #231, .F. ) ;
#254 = VECTOR ( 'NONE', #6, 1000.000000000000000 ) ;
#255 = EDGE_LOOP ( 'NONE', ( #91, #69, #143, #256 ) ) ;
#256 = ORIENTED_EDGE ( 'NONE', *, *, #187, .T. ) ;
#257 = APPROVAL_ROLE ( '' ) ;
#258 = DIRECTION ( 'NONE',  ( 1.000000000000000000, 0.000000000000000000, 0.000000000000000000 ) ) ;
#259 = APPLICATION_PROTOCOL_DEFINITION ( 'international standard', 'config_control_design', 1994, #68 ) ;
#260 = EDGE_CURVE ( 'NONE', #234, #226, #202, .T. ) ;
#261 =( LENGTH_UNIT ( ) NAMED_UNIT ( * ) SI_UNIT ( .MILLI., .METRE. ) );
#262 = ORIENTED_EDGE ( 'NONE', *, *, #210, .F. ) ;
#263 = VERTEX_POINT ( 'NONE', #58 ) ;
#264 = CARTESIAN_POINT ( 'NONE',  ( 0.000000000000000000, 0.000000000000000000, 0.000000000000000000 ) ) ;
#265 = CIRCLE ( 'NONE', #313, 5.500000000000000000 ) ;
#266 = DIRECTION ( 'NONE',  ( 1.000000000000000000, 0.000000000000000000, 0.000000000000000000 ) ) ;
#267 = SECURITY_CLASSIFICATION_LEVEL ( 'unclassified' ) ;
#268 = DIRECTION ( 'NONE',  ( 0.000000000000000000, 0.000000000000000000, 1.000000000000000000 ) ) ;
#269 = AXIS2_PLACEMENT_3D ( 'NONE', #324, #47, #195 ) ;
#270 = FACE_OUTER_BOUND ( 'NONE', #141, .T. ) ;
#271 = CIRCLE ( 'NONE', #133, 5.500000000000000000 ) ;
#272 = PERSON_AND_ORGANIZATION ( #30, #194 ) ;
#273 = CARTESIAN_POINT ( 'NONE',  ( 16.00000000000000000, 0.000000000000000000, 40.00000000000000000 ) ) ;
#274 = CARTESIAN_POINT ( 'NONE',  ( 5.500000000000000000, 0.000000000000000000, 0.000000000000000000 ) ) ;
#275 = EDGE_CURVE ( 'NONE', #118, #252, #60, .T. ) ;
#276 = LINE ( 'NONE', #198, #204 ) ;
#277 = AXIS2_PLACEMENT_3D ( 'NONE', #63, #83, #227 ) ;
#278 = APPROVAL ( #92, 'UNSPECIFIED' ) ;
#279 = ADVANCED_BREP_SHAPE_REPRESENTATION ( 'bj300-10020', ( #114, #14 ), #174 ) ;
#280 = CARTESIAN_POINT ( 'NONE',  ( 0.000000000000000000, 0.000000000000000000, 20.00000000000000000 ) ) ;
#281 = EDGE_CURVE ( 'NONE', #163, #234, #301, .T. ) ;
#282 = CLOSED_SHELL ( 'NONE', ( #243, #321, #150, #184, #119, #97, #328, #94, #253 ) ) ;
#283 = DIRECTION ( 'NONE',  ( 0.000000000000000000, 0.000000000000000000, 1.000000000000000000 ) ) ;
#284 = CALENDAR_DATE ( 2021, 25, 10 ) ;
#285 = LOCAL_TIME ( 8, 51, 1.000000000000000000, #291 ) ;
#286 = CARTESIAN_POINT ( 'NONE',  ( -5.500000000000000000, 6.735557395310442023E-16, 40.00000000000000000 ) ) ;
#287 = EDGE_CURVE ( 'NONE', #85, #65, #86, .T. ) ;
#288 = DIRECTION ( 'NONE',  ( 0.000000000000000000, 0.000000000000000000, 1.000000000000000000 ) ) ;
#289 = CC_DESIGN_PERSON_AND_ORGANIZATION_ASSIGNMENT ( #101, #246, ( #248 ) ) ;
#290 = AXIS2_PLACEMENT_3D ( 'NONE', #25, #298, #81 ) ;
#291 = COORDINATED_UNIVERSAL_TIME_OFFSET ( 9, 0, .AHEAD. ) ;
#292 = APPROVAL ( #132, 'UNSPECIFIED' ) ;
#293 = DIRECTION ( 'NONE',  ( -1.000000000000000000, 0.000000000000000000, 0.000000000000000000 ) ) ;
#294 = DATE_AND_TIME ( #196, #183 ) ;
#295 = AXIS2_PLACEMENT_3D ( 'NONE', #203, #10, #306 ) ;
#296 = CARTESIAN_POINT ( 'NONE',  ( 9.000000000000000000, 0.000000000000000000, 9.000000000000000000 ) ) ;
#297 = PERSON_AND_ORGANIZATION ( #30, #194 ) ;
#298 = DIRECTION ( 'NONE',  ( 0.000000000000000000, 0.000000000000000000, 1.000000000000000000 ) ) ;
#299 = AXIS2_PLACEMENT_3D ( 'NONE', #274, #79, #218 ) ;
#300 = CARTESIAN_POINT ( 'NONE',  ( 0.000000000000000000, 0.000000000000000000, 40.00000000000000000 ) ) ;
#301 = CIRCLE ( 'NONE', #295, 16.00000000000000000 ) ;
#302 = ORIENTED_EDGE ( 'NONE', *, *, #315, .F. ) ;
#303 = LINE ( 'NONE', #84, #139 ) ;
#304 = CC_DESIGN_PERSON_AND_ORGANIZATION_ASSIGNMENT ( #297, #172, ( #144 ) ) ;
#305 = ORIENTED_EDGE ( 'NONE', *, *, #187, .F. ) ;
#306 = DIRECTION ( 'NONE',  ( 1.000000000000000000, 0.000000000000000000, 0.000000000000000000 ) ) ;
#307 = EDGE_CURVE ( 'NONE', #85, #32, #265, .T. ) ;
#308 = DIRECTION ( 'NONE',  ( 0.000000000000000000, 0.000000000000000000, 1.000000000000000000 ) ) ;
#309 = EDGE_LOOP ( 'NONE', ( #5, #311 ) ) ;
#310 = UNCERTAINTY_MEASURE_WITH_UNIT (LENGTH_MEASURE( 1.000000000000000082E-05 ), #261, 'distance_accuracy_value', 'NONE');
#311 = ORIENTED_EDGE ( 'NONE', *, *, #135, .T. ) ;
#312 = PRODUCT ( 'bj300-10020', 'bj300-10020', '', ( #13 ) ) ;
#313 = AXIS2_PLACEMENT_3D ( 'NONE', #264, #308, #88 ) ;
#314 = DIRECTION ( 'NONE',  ( 1.000000000000000000, 0.000000000000000000, 0.000000000000000000 ) ) ;
#315 = EDGE_CURVE ( 'NONE', #65, #232, #271, .T. ) ;
#316 = ORIENTED_EDGE ( 'NONE', *, *, #239, .T. ) ;
#317 = PERSON_AND_ORGANIZATION ( #30, #194 ) ;
#318 = EDGE_LOOP ( 'NONE', ( #165, #137 ) ) ;
#319 = APPLICATION_PROTOCOL_DEFINITION ( 'international standard', 'config_control_design', 1994, #200 ) ;
#320 = EDGE_LOOP ( 'NONE', ( #213, #236, #209, #240 ) ) ;
#321 = ADVANCED_FACE ( 'NONE', ( #186 ), #117, .T. ) ;
#322 = PLANE ( 'NONE',  #66 ) ;
#323 = CARTESIAN_POINT ( 'NONE',  ( 0.000000000000000000, 0.000000000000000000, 20.00000000000000000 ) ) ;
#324 = CARTESIAN_POINT ( 'NONE',  ( 0.000000000000000000, 0.000000000000000000, 0.000000000000000000 ) ) ;
#325 = APPROVAL_PERSON_ORGANIZATION ( #245, #215, #127 ) ;
#326 = CC_DESIGN_SECURITY_CLASSIFICATION ( #42, ( #144 ) ) ;
#327 = COORDINATED_UNIVERSAL_TIME_OFFSET ( 9, 0, .AHEAD. ) ;
#328 = ADVANCED_FACE ( 'NONE', ( #168 ), #67, .T. ) ;
#329 = DIRECTION ( 'NONE',  ( 0.000000000000000000, 0.000000000000000000, 1.000000000000000000 ) ) ;
ENDSEC;
END-ISO-10303-21;
