ISO-10303-21;
HEADER;
FILE_DESCRIPTION (( 'STEP AP203' ),
    '1' );
FILE_NAME ('bj790-10001.STEP',
    '2021-10-25T00:28:29',
    ( '' ),
    ( '' ),
    'SwSTEP 2.0',
    'SolidWorks 2020',
    '' );
FILE_SCHEMA (( 'CONFIG_CONTROL_DESIGN' ));
ENDSEC;

DATA;
#1 = CARTESIAN_POINT ( 'NONE',  ( -1.518000000000000016, -1.523223392000000009, 17.00000001599999777 ) ) ;
#2 = CARTESIAN_POINT ( 'NONE',  ( 0.000000000000000000, 0.000000000000000000, 18.44743199999999916 ) ) ;
#3 = APPROVAL_STATUS ( 'not_yet_approved' ) ;
#4 = DIRECTION ( 'NONE',  ( 0.000000000000000000, 0.000000000000000000, -1.000000000000000000 ) ) ;
#5 = CIRCLE ( 'NONE', #122, 1.500000000000000000 ) ;
#6 = DIRECTION ( 'NONE',  ( -0.3420199981939534561, 0.000000000000000000, -0.9396926736095200239 ) ) ;
#7 = ORIENTED_EDGE ( 'NONE', *, *, #170, .T. ) ;
#8 = DIRECTION ( 'NONE',  ( 0.000000000000000000, 0.000000000000000000, -1.000000000000000000 ) ) ;
#9 = DIRECTION ( 'NONE',  ( 1.000000000000000000, 0.000000000000000000, 0.000000000000000000 ) ) ;
#10 = ORIENTED_EDGE ( 'NONE', *, *, #282, .F. ) ;
#11 = EDGE_CURVE ( 'NONE', #116, #246, #86, .T. ) ;
#12 = AXIS2_PLACEMENT_3D ( 'NONE', #53, #51, #403 ) ;
#13 = CC_DESIGN_APPROVAL ( #296, ( #280 ) ) ;
#14 = AXIS2_PLACEMENT_3D ( 'NONE', #225, #157, #188 ) ;
#15 = EDGE_CURVE ( 'NONE', #303, #238, #213, .T. ) ;
#16 = ORIENTED_EDGE ( 'NONE', *, *, #226, .T. ) ;
#17 = ADVANCED_FACE ( 'NONE', ( #32 ), #163, .F. ) ;
#18 = VERTEX_POINT ( 'NONE', #135 ) ;
#19 = PERSON ( 'UNSPECIFIED', 'UNSPECIFIED', 'UNSPECIFIED', ('UNSPECIFIED'), ('UNSPECIFIED'), ('UNSPECIFIED') ) ;
#20 = CIRCLE ( 'NONE', #328, 5.000000000000000000 ) ;
#21 = APPLICATION_PROTOCOL_DEFINITION ( 'international standard', 'config_control_design', 1994, #153 ) ;
#22 = ORIENTED_EDGE ( 'NONE', *, *, #397, .T. ) ;
#23 = ORIENTED_EDGE ( 'NONE', *, *, #61, .T. ) ;
#24 = LINE ( 'NONE', #115, #56 ) ;
#25 = ORIENTED_EDGE ( 'NONE', *, *, #308, .T. ) ;
#26 = DIRECTION ( 'NONE',  ( 0.3420199981939534561, 4.188536960326086870E-17, -0.9396926736095200239 ) ) ;
#27 = DIRECTION ( 'NONE',  ( 1.000000000000000000, 0.000000000000000000, 0.000000000000000000 ) ) ;
#28 = AXIS2_PLACEMENT_3D ( 'NONE', #215, #241, #207 ) ;
#29 = DIRECTION ( 'NONE',  ( 1.000000000000000000, 0.000000000000000000, 0.000000000000000000 ) ) ;
#30 = AXIS2_PLACEMENT_3D ( 'NONE', #232, #363, #290 ) ;
#31 = CYLINDRICAL_SURFACE ( 'NONE', #351, 5.000000000000000000 ) ;
#32 = FACE_OUTER_BOUND ( 'NONE', #278, .T. ) ;
#33 = PERSON_AND_ORGANIZATION_ROLE ( 'creator' ) ;
#34 = LOCAL_TIME ( 9, 28, 29.00000000000000000, #406 ) ;
#35 = PERSON_AND_ORGANIZATION ( #19, #358 ) ;
#36 = CARTESIAN_POINT ( 'NONE',  ( 5.000000000000000000, 6.123233995736766282E-16, 15.50000000000000000 ) ) ;
#37 = DIRECTION ( 'NONE',  ( -0.4999998251561786899, 6.123231854517505175E-17, 0.8660255047305424059 ) ) ;
#38 = PERSON_AND_ORGANIZATION ( #19, #358 ) ;
#39 = DIRECTION ( 'NONE',  ( 0.000000000000000000, 0.000000000000000000, 1.000000000000000000 ) ) ;
#40 = AXIS2_PLACEMENT_3D ( 'NONE', #315, #346, #309 ) ;
#41 = PLANE ( 'NONE',  #177 ) ;
#42 = VECTOR ( 'NONE', #6, 1000.000000000000227 ) ;
#43 = DIRECTION ( 'NONE',  ( 0.000000000000000000, 0.000000000000000000, 1.000000000000000000 ) ) ;
#44 = CIRCLE ( 'NONE', #333, 5.000000000000000000 ) ;
#45 = DIRECTION ( 'NONE',  ( -1.000000000000000000, 0.000000000000000000, 0.000000000000000000 ) ) ;
#46 = ADVANCED_FACE ( 'NONE', ( #299 ), #100, .T. ) ;
#47 = FACE_OUTER_BOUND ( 'NONE', #240, .T. ) ;
#48 = ORIENTED_EDGE ( 'NONE', *, *, #355, .T. ) ;
#49 = ADVANCED_FACE ( 'NONE', ( #262 ), #58, .T. ) ;
#50 = MECHANICAL_CONTEXT ( 'NONE', #153, 'mechanical' ) ;
#51 = DIRECTION ( 'NONE',  ( 0.000000000000000000, 0.000000000000000000, -1.000000000000000000 ) ) ;
#52 = ORIENTED_EDGE ( 'NONE', *, *, #103, .T. ) ;
#53 = CARTESIAN_POINT ( 'NONE',  ( 0.000000000000000000, 0.000000000000000000, 23.00000001520355042 ) ) ;
#54 =( LENGTH_UNIT ( ) NAMED_UNIT ( * ) SI_UNIT ( .MILLI., .METRE. ) );
#55 = CARTESIAN_POINT ( 'NONE',  ( -1.500000000000000000, 1.836970198721029934E-16, 23.00000001600000132 ) ) ;
#56 = VECTOR ( 'NONE', #26, 1000.000000000000227 ) ;
#57 = PERSON_AND_ORGANIZATION ( #19, #358 ) ;
#58 = CONICAL_SURFACE ( 'NONE', #30, 4.422649999999999970, 0.5235985737060560030 ) ;
#59 = CARTESIAN_POINT ( 'NONE',  ( 0.000000000000000000, 0.000000000000000000, 0.000000000000000000 ) ) ;
#60 = DATE_TIME_ROLE ( 'creation_date' ) ;
#61 = EDGE_CURVE ( 'NONE', #211, #271, #264, .T. ) ;
#62 = CIRCLE ( 'NONE', #300, 1.500000000000000000 ) ;
#63 = PERSON_AND_ORGANIZATION ( #19, #358 ) ;
#64 = CONICAL_SURFACE ( 'NONE', #318, 3.927222999999999686, 0.3490656959529248593 ) ;
#65 = AXIS2_PLACEMENT_3D ( 'NONE', #90, #85, #220 ) ;
#66 = CARTESIAN_POINT ( 'NONE',  ( 5.000000000000000000, 0.000000000000000000, 1.000000000000000000 ) ) ;
#67 = DIRECTION ( 'NONE',  ( 0.000000000000000000, 0.000000000000000000, 1.000000000000000000 ) ) ;
#68 = APPLICATION_PROTOCOL_DEFINITION ( 'international standard', 'config_control_design', 1994, #352 ) ;
#69 = CARTESIAN_POINT ( 'NONE',  ( -3.927222999999999686, 0.000000000000000000, 18.44743199999999916 ) ) ;
#70 = DIRECTION ( 'NONE',  ( -0.000000000000000000, -0.000000000000000000, -1.000000000000000000 ) ) ;
#71 = ORIENTED_EDGE ( 'NONE', *, *, #151, .F. ) ;
#72 = CARTESIAN_POINT ( 'NONE',  ( 0.000000000000000000, 0.000000000000000000, 23.00000001600000132 ) ) ;
#73 = DIRECTION ( 'NONE',  ( 0.000000000000000000, 0.000000000000000000, 1.000000000000000000 ) ) ;
#74 = CIRCLE ( 'NONE', #14, 3.927222999999999686 ) ;
#75 = VERTEX_POINT ( 'NONE', #383 ) ;
#76 = ORIENTED_EDGE ( 'NONE', *, *, #61, .F. ) ;
#77 = VERTEX_POINT ( 'NONE', #359 ) ;
#78 = ORIENTED_EDGE ( 'NONE', *, *, #281, .F. ) ;
#79 =( NAMED_UNIT ( * ) PLANE_ANGLE_UNIT ( ) SI_UNIT ( $, .RADIAN. ) );
#80 = LOCAL_TIME ( 9, 28, 29.00000000000000000, #381 ) ;
#81 = AXIS2_PLACEMENT_3D ( 'NONE', #334, #108, #172 ) ;
#82 = CIRCLE ( 'NONE', #219, 2.500000088650095265 ) ;
#83 = CARTESIAN_POINT ( 'NONE',  ( 2.500000050999999779, 3.061617060325369503E-16, 20.49999992655344982 ) ) ;
#84 = ORIENTED_EDGE ( 'NONE', *, *, #340, .T. ) ;
#85 = DIRECTION ( 'NONE',  ( 0.000000000000000000, 0.000000000000000000, -1.000000000000000000 ) ) ;
#86 = LINE ( 'NONE', #132, #327 ) ;
#87 = ADVANCED_FACE ( 'NONE', ( #142 ), #64, .T. ) ;
#88 = CALENDAR_DATE ( 2021, 25, 10 ) ;
#89 = ORIENTED_EDGE ( 'NONE', *, *, #11, .T. ) ;
#90 = CARTESIAN_POINT ( 'NONE',  ( 0.000000000000000000, 0.000000000000000000, 20.49999992655344982 ) ) ;
#91 = AXIS2_PLACEMENT_3D ( 'NONE', #59, #217, #27 ) ;
#92 = APPROVAL_ROLE ( '' ) ;
#93 = ORIENTED_EDGE ( 'NONE', *, *, #258, .F. ) ;
#94 = SHAPE_DEFINITION_REPRESENTATION ( #293, #150 ) ;
#95 = VERTEX_POINT ( 'NONE', #297 ) ;
#96 = SECURITY_CLASSIFICATION_LEVEL ( 'unclassified' ) ;
#97 = DIRECTION ( 'NONE',  ( 1.000000000000000000, 0.000000000000000000, 0.000000000000000000 ) ) ;
#98 = LINE ( 'NONE', #256, #393 ) ;
#99 = LOCAL_TIME ( 9, 28, 29.00000000000000000, #249 ) ;
#100 = CONICAL_SURFACE ( 'NONE', #206, 4.422649999999999970, 0.5235985737060560030 ) ;
#101 = AXIS2_PLACEMENT_3D ( 'NONE', #270, #183, #272 ) ;
#102 = DIRECTION ( 'NONE',  ( 1.000000000000000000, 0.000000000000000000, 0.000000000000000000 ) ) ;
#103 = EDGE_CURVE ( 'NONE', #164, #95, #173, .T. ) ;
#104 = CARTESIAN_POINT ( 'NONE',  ( -5.000000000000000000, 0.000000000000000000, 15.50000000000000000 ) ) ;
#105 = PRODUCT ( 'bj790-10001', 'bj790-10001', '', ( #50 ) ) ;
#106 = EDGE_CURVE ( 'NONE', #75, #164, #98, .T. ) ;
#107 = DIRECTION ( 'NONE',  ( 1.000000000000000000, 0.000000000000000000, 0.000000000000000000 ) ) ;
#108 = DIRECTION ( 'NONE',  ( -0.000000000000000000, -1.000000000000000000, -0.000000000000000000 ) ) ;
#109 = FACE_OUTER_BOUND ( 'NONE', #283, .T. ) ;
#110 = DIRECTION ( 'NONE',  ( 1.000000000000000000, 0.000000000000000000, 0.000000000000000000 ) ) ;
#111 = LINE ( 'NONE', #279, #242 ) ;
#112 = ORIENTED_EDGE ( 'NONE', *, *, #170, .F. ) ;
#113 = AXIS2_PLACEMENT_3D ( 'NONE', #307, #239, #400 ) ;
#114 = ORIENTED_EDGE ( 'NONE', *, *, #258, .T. ) ;
#115 = CARTESIAN_POINT ( 'NONE',  ( 3.927222999999999686, 4.809461076487865290E-16, 18.44743199999999916 ) ) ;
#116 = VERTEX_POINT ( 'NONE', #201 ) ;
#117 = PRODUCT_RELATED_PRODUCT_CATEGORY ( 'detail', '', ( #105 ) ) ;
#118 = ORIENTED_EDGE ( 'NONE', *, *, #314, .T. ) ;
#119 = APPROVAL_PERSON_ORGANIZATION ( #193, #223, #165 ) ;
#120 = DIRECTION ( 'NONE',  ( 0.000000000000000000, 0.000000000000000000, 1.000000000000000000 ) ) ;
#121 = DIRECTION ( 'NONE',  ( -1.000000000000000000, 0.000000000000000000, 0.000000000000000000 ) ) ;
#122 = AXIS2_PLACEMENT_3D ( 'NONE', #185, #160, #97 ) ;
#123 = EDGE_LOOP ( 'NONE', ( #114, #52 ) ) ;
#124 = FACE_OUTER_BOUND ( 'NONE', #235, .T. ) ;
#125 = EDGE_CURVE ( 'NONE', #271, #303, #200, .T. ) ;
#126 = PERSON_AND_ORGANIZATION ( #19, #358 ) ;
#127 = CARTESIAN_POINT ( 'NONE',  ( -5.000000000000000000, 6.123233995736766282E-16, 1.000000000000000000 ) ) ;
#128 = ORIENTED_EDGE ( 'NONE', *, *, #106, .T. ) ;
#129 = DATE_AND_TIME ( #350, #80 ) ;
#130 = APPROVAL_STATUS ( 'not_yet_approved' ) ;
#131 = CARTESIAN_POINT ( 'NONE',  ( 2.530000051000000028, -2.538705703999999841, 23.00000001600000132 ) ) ;
#132 = CARTESIAN_POINT ( 'NONE',  ( -4.422649999999999970, 5.416184166249041754E-16, 0.000000000000000000 ) ) ;
#133 = PERSON_AND_ORGANIZATION_ROLE ( 'creator' ) ;
#134 = DIRECTION ( 'NONE',  ( 0.000000000000000000, 0.000000000000000000, 1.000000000000000000 ) ) ;
#135 = CARTESIAN_POINT ( 'NONE',  ( 3.927222999999999686, 5.466347536112315786E-16, 18.44743199999999916 ) ) ;
#136 = DATE_AND_TIME ( #227, #99 ) ;
#137 = EDGE_CURVE ( 'NONE', #238, #303, #20, .T. ) ;
#138 = CONICAL_SURFACE ( 'NONE', #101, 3.927222999999999686, 0.3490656959529248593 ) ;
#139 = CC_DESIGN_SECURITY_CLASSIFICATION ( #280, ( #325 ) ) ;
#140 = CARTESIAN_POINT ( 'NONE',  ( 0.000000000000000000, 0.000000000000000000, 15.50000000000000000 ) ) ;
#141 = CARTESIAN_POINT ( 'NONE',  ( 0.000000000000000000, 0.000000000000000000, 1.000000000000000000 ) ) ;
#142 = FACE_OUTER_BOUND ( 'NONE', #332, .T. ) ;
#143 = ADVANCED_FACE ( 'NONE', ( #109 ), #236, .F. ) ;
#144 = EDGE_CURVE ( 'NONE', #77, #116, #245, .T. ) ;
#145 = APPROVAL_PERSON_ORGANIZATION ( #57, #260, #377 ) ;
#146 = AXIS2_PLACEMENT_3D ( 'NONE', #72, #70, #253 ) ;
#147 = AXIS2_PLACEMENT_3D ( 'NONE', #362, #171, #233 ) ;
#148 = DIRECTION ( 'NONE',  ( 1.000000000000000000, 0.000000000000000000, 0.000000000000000000 ) ) ;
#149 = DIRECTION ( 'NONE',  ( 0.000000000000000000, 0.000000000000000000, -1.000000000000000000 ) ) ;
#150 = ADVANCED_BREP_SHAPE_REPRESENTATION ( 'bj790-10001', ( #347, #161 ), #337 ) ;
#151 = EDGE_CURVE ( 'NONE', #116, #77, #198, .T. ) ;
#152 = FACE_OUTER_BOUND ( 'NONE', #394, .T. ) ;
#153 = APPLICATION_CONTEXT ( 'configuration controlled 3d designs of mechanical parts and assemblies' ) ;
#154 = CC_DESIGN_DATE_AND_TIME_ASSIGNMENT ( #136, #357, ( #280 ) ) ;
#155 = ADVANCED_FACE ( 'NONE', ( #124 ), #401, .F. ) ;
#156 = CYLINDRICAL_SURFACE ( 'NONE', #28, 5.000000000000000000 ) ;
#157 = DIRECTION ( 'NONE',  ( 0.000000000000000000, 0.000000000000000000, 1.000000000000000000 ) ) ;
#158 = ORIENTED_EDGE ( 'NONE', *, *, #285, .T. ) ;
#159 = AXIS2_PLACEMENT_3D ( 'NONE', #304, #149, #267 ) ;
#160 = DIRECTION ( 'NONE',  ( -0.000000000000000000, -0.000000000000000000, -1.000000000000000000 ) ) ;
#161 = AXIS2_PLACEMENT_3D ( 'NONE', #212, #208, #341 ) ;
#162 = DIRECTION ( 'NONE',  ( 0.000000000000000000, 0.000000000000000000, -1.000000000000000000 ) ) ;
#163 = CYLINDRICAL_SURFACE ( 'NONE', #353, 1.500000000000000000 ) ;
#164 = VERTEX_POINT ( 'NONE', #55 ) ;
#165 = APPROVAL_ROLE ( '' ) ;
#166 = ORIENTED_EDGE ( 'NONE', *, *, #125, .T. ) ;
#167 = PERSON_AND_ORGANIZATION_ROLE ( 'design_owner' ) ;
#168 = DATE_AND_TIME ( #291, #374 ) ;
#169 = ADVANCED_FACE ( 'NONE', ( #322 ), #384, .T. ) ;
#170 = EDGE_CURVE ( 'NONE', #18, #271, #74, .T. ) ;
#171 = DIRECTION ( 'NONE',  ( 0.000000000000000000, 0.000000000000000000, 1.000000000000000000 ) ) ;
#172 = DIRECTION ( 'NONE',  ( 0.000000000000000000, 0.000000000000000000, -1.000000000000000000 ) ) ;
#173 = CIRCLE ( 'NONE', #146, 1.500000000000000000 ) ;
#174 = DIRECTION ( 'NONE',  ( -1.000000000000000000, 0.000000000000000000, 0.000000000000000000 ) ) ;
#175 = ORIENTED_EDGE ( 'NONE', *, *, #103, .F. ) ;
#176 = CIRCLE ( 'NONE', #12, 2.500000049155254978 ) ;
#177 = AXIS2_PLACEMENT_3D ( 'NONE', #1, #386, #102 ) ;
#178 = DESIGN_CONTEXT ( 'detailed design', #352, 'design' ) ;
#179 = ORIENTED_EDGE ( 'NONE', *, *, #144, .T. ) ;
#180 = ADVANCED_FACE ( 'NONE', ( #319 ), #31, .T. ) ;
#181 = DIRECTION ( 'NONE',  ( 0.4999998251561786899, 0.000000000000000000, 0.8660255047305424059 ) ) ;
#182 = ORIENTED_EDGE ( 'NONE', *, *, #317, .F. ) ;
#183 = DIRECTION ( 'NONE',  ( 0.000000000000000000, 0.000000000000000000, -1.000000000000000000 ) ) ;
#184 = ORIENTED_EDGE ( 'NONE', *, *, #137, .F. ) ;
#185 = CARTESIAN_POINT ( 'NONE',  ( 0.000000000000000000, 0.000000000000000000, 23.00000001600000132 ) ) ;
#186 = DIRECTION ( 'NONE',  ( -1.000000000000000000, -1.224646799147352961E-16, 0.000000000000000000 ) ) ;
#187 = AXIS2_PLACEMENT_3D ( 'NONE', #210, #370, #110 ) ;
#188 = DIRECTION ( 'NONE',  ( 1.000000000000000000, 0.000000000000000000, 0.000000000000000000 ) ) ;
#189 = CARTESIAN_POINT ( 'NONE',  ( 0.000000000000000000, 0.000000000000000000, 15.50000000000000000 ) ) ;
#190 = APPROVAL_DATE_TIME ( #168, #260 ) ;
#191 = EDGE_CURVE ( 'NONE', #306, #95, #399, .T. ) ;
#192 = DIRECTION ( 'NONE',  ( 0.000000000000000000, 0.000000000000000000, 1.000000000000000000 ) ) ;
#193 = PERSON_AND_ORGANIZATION ( #19, #358 ) ;
#194 = CC_DESIGN_PERSON_AND_ORGANIZATION_ASSIGNMENT ( #35, #289, ( #280 ) ) ;
#195 = FACE_OUTER_BOUND ( 'NONE', #310, .T. ) ;
#196 = CC_DESIGN_APPROVAL ( #260, ( #325 ) ) ;
#197 = COORDINATED_UNIVERSAL_TIME_OFFSET ( 9, 0, .AHEAD. ) ;
#198 = CIRCLE ( 'NONE', #91, 4.422649999999999970 ) ;
#199 = EDGE_LOOP ( 'NONE', ( #179, #89, #367, #224 ) ) ;
#200 = LINE ( 'NONE', #294, #42 ) ;
#201 = CARTESIAN_POINT ( 'NONE',  ( -4.422649999999999970, 5.769709080992903525E-16, 0.000000000000000000 ) ) ;
#202 = CARTESIAN_POINT ( 'NONE',  ( 0.000000000000000000, 0.000000000000000000, 0.000000000000000000 ) ) ;
#203 = ORIENTED_EDGE ( 'NONE', *, *, #15, .T. ) ;
#204 = ORIENTED_EDGE ( 'NONE', *, *, #281, .T. ) ;
#205 = CIRCLE ( 'NONE', #159, 2.500000049155254978 ) ;
#206 = AXIS2_PLACEMENT_3D ( 'NONE', #202, #39, #9 ) ;
#207 = DIRECTION ( 'NONE',  ( -1.000000000000000000, 0.000000000000000000, 0.000000000000000000 ) ) ;
#208 = DIRECTION ( 'NONE',  ( 0.000000000000000000, 0.000000000000000000, 1.000000000000000000 ) ) ;
#209 = ADVANCED_FACE ( 'NONE', ( #244, #195 ), #407, .F. ) ;
#210 = CARTESIAN_POINT ( 'NONE',  ( 0.000000000000000000, 0.000000000000000000, 0.000000000000000000 ) ) ;
#211 = VERTEX_POINT ( 'NONE', #216 ) ;
#212 = CARTESIAN_POINT ( 'NONE',  ( 0.000000000000000000, 0.000000000000000000, 0.000000000000000000 ) ) ;
#213 = CIRCLE ( 'NONE', #265, 5.000000000000000000 ) ;
#214 = ORIENTED_EDGE ( 'NONE', *, *, #144, .F. ) ;
#215 = CARTESIAN_POINT ( 'NONE',  ( 0.000000000000000000, 0.000000000000000000, 15.50000000000000000 ) ) ;
#216 = CARTESIAN_POINT ( 'NONE',  ( -2.500000049155254978, 0.000000000000000000, 23.00000001520355042 ) ) ;
#217 = DIRECTION ( 'NONE',  ( 0.000000000000000000, 0.000000000000000000, 1.000000000000000000 ) ) ;
#218 = DATE_AND_TIME ( #88, #34 ) ;
#219 = AXIS2_PLACEMENT_3D ( 'NONE', #83, #373, #186 ) ;
#220 = DIRECTION ( 'NONE',  ( -1.000000000000000000, 0.000000000000000000, 0.000000000000000000 ) ) ;
#221 = DATE_AND_TIME ( #380, #243 ) ;
#222 = ORIENTED_EDGE ( 'NONE', *, *, #137, .T. ) ;
#223 = APPROVAL ( #331, 'UNSPECIFIED' ) ;
#224 = ORIENTED_EDGE ( 'NONE', *, *, #340, .F. ) ;
#225 = CARTESIAN_POINT ( 'NONE',  ( 0.000000000000000000, 0.000000000000000000, 18.44743199999999916 ) ) ;
#226 = EDGE_CURVE ( 'NONE', #342, #211, #176, .T. ) ;
#227 = CALENDAR_DATE ( 2021, 25, 10 ) ;
#228 = CARTESIAN_POINT ( 'NONE',  ( 1.500000000000000000, 0.000000000000000000, 17.00000001599999777 ) ) ;
#229 = AXIS2_PLACEMENT_3D ( 'NONE', #131, #251, #247 ) ;
#230 = VECTOR ( 'NONE', #8, 1000.000000000000000 ) ;
#231 = EDGE_LOOP ( 'NONE', ( #335, #275, #84, #273 ) ) ;
#232 = CARTESIAN_POINT ( 'NONE',  ( 0.000000000000000000, 0.000000000000000000, 0.000000000000000000 ) ) ;
#233 = DIRECTION ( 'NONE',  ( 1.000000000000000000, 0.000000000000000000, 0.000000000000000000 ) ) ;
#234 = ORIENTED_EDGE ( 'NONE', *, *, #106, .F. ) ;
#235 = EDGE_LOOP ( 'NONE', ( #214, #71 ) ) ;
#236 = CYLINDRICAL_SURFACE ( 'NONE', #375, 1.500000000000000000 ) ;
#237 = CIRCLE ( 'NONE', #255, 3.927222999999999686 ) ;
#238 = VERTEX_POINT ( 'NONE', #311 ) ;
#239 = DIRECTION ( 'NONE',  ( -0.000000000000000000, -0.000000000000000000, 1.000000000000000000 ) ) ;
#240 = EDGE_LOOP ( 'NONE', ( #348, #48, #7, #76 ) ) ;
#241 = DIRECTION ( 'NONE',  ( 0.000000000000000000, 0.000000000000000000, -1.000000000000000000 ) ) ;
#242 = VECTOR ( 'NONE', #181, 1000.000000000000000 ) ;
#243 = LOCAL_TIME ( 9, 28, 29.00000000000000000, #197 ) ;
#244 = FACE_BOUND ( 'NONE', #123, .T. ) ;
#245 = CIRCLE ( 'NONE', #187, 4.422649999999999970 ) ;
#246 = VERTEX_POINT ( 'NONE', #127 ) ;
#247 = DIRECTION ( 'NONE',  ( -1.000000000000000000, 0.000000000000000000, 0.000000000000000000 ) ) ;
#248 = COORDINATED_UNIVERSAL_TIME_OFFSET ( 9, 0, .AHEAD. ) ;
#249 = COORDINATED_UNIVERSAL_TIME_OFFSET ( 9, 0, .AHEAD. ) ;
#250 = CC_DESIGN_PERSON_AND_ORGANIZATION_ASSIGNMENT ( #404, #133, ( #356 ) ) ;
#251 = DIRECTION ( 'NONE',  ( 0.000000000000000000, 0.000000000000000000, -1.000000000000000000 ) ) ;
#252 = ORIENTED_EDGE ( 'NONE', *, *, #285, .F. ) ;
#253 = DIRECTION ( 'NONE',  ( 1.000000000000000000, 0.000000000000000000, 0.000000000000000000 ) ) ;
#254 = DIRECTION ( 'NONE',  ( 0.000000000000000000, 0.000000000000000000, -1.000000000000000000 ) ) ;
#255 = AXIS2_PLACEMENT_3D ( 'NONE', #288, #134, #107 ) ;
#256 = CARTESIAN_POINT ( 'NONE',  ( -1.500000000000000000, 1.836970198721029934E-16, 17.00000001599999777 ) ) ;
#257 = DIRECTION ( 'NONE',  ( -0.000000000000000000, -0.000000000000000000, 1.000000000000000000 ) ) ;
#258 = EDGE_CURVE ( 'NONE', #95, #164, #5, .T. ) ;
#259 = DIRECTION ( 'NONE',  ( -0.000000000000000000, -0.000000000000000000, 1.000000000000000000 ) ) ;
#260 = APPROVAL ( #130, 'UNSPECIFIED' ) ;
#261 = ORIENTED_EDGE ( 'NONE', *, *, #308, .F. ) ;
#262 = FACE_OUTER_BOUND ( 'NONE', #199, .T. ) ;
#263 = CC_DESIGN_APPROVAL ( #223, ( #356 ) ) ;
#264 = CIRCLE ( 'NONE', #81, 2.500000088650096597 ) ;
#265 = AXIS2_PLACEMENT_3D ( 'NONE', #189, #320, #121 ) ;
#266 = ORIENTED_EDGE ( 'NONE', *, *, #191, .F. ) ;
#267 = DIRECTION ( 'NONE',  ( -1.000000000000000000, 0.000000000000000000, 0.000000000000000000 ) ) ;
#268 = AXIS2_PLACEMENT_3D ( 'NONE', #376, #192, #344 ) ;
#269 = EDGE_LOOP ( 'NONE', ( #10, #365, #25, #22 ) ) ;
#270 = CARTESIAN_POINT ( 'NONE',  ( 0.000000000000000000, 0.000000000000000000, 18.44743199999999916 ) ) ;
#271 = VERTEX_POINT ( 'NONE', #69 ) ;
#272 = DIRECTION ( 'NONE',  ( -1.000000000000000000, 0.000000000000000000, 0.000000000000000000 ) ) ;
#273 = ORIENTED_EDGE ( 'NONE', *, *, #397, .F. ) ;
#274 = CC_DESIGN_PERSON_AND_ORGANIZATION_ASSIGNMENT ( #63, #33, ( #325 ) ) ;
#275 = ORIENTED_EDGE ( 'NONE', *, *, #151, .T. ) ;
#276 = EDGE_LOOP ( 'NONE', ( #184, #368, #118, #261 ) ) ;
#277 = CARTESIAN_POINT ( 'NONE',  ( 0.000000000000000000, 0.000000000000000000, 15.50000000000000000 ) ) ;
#278 = EDGE_LOOP ( 'NONE', ( #234, #78, #391, #175 ) ) ;
#279 = CARTESIAN_POINT ( 'NONE',  ( 4.422649999999999970, 0.000000000000000000, 0.000000000000000000 ) ) ;
#280 = SECURITY_CLASSIFICATION ( '', '', #96 ) ;
#281 = EDGE_CURVE ( 'NONE', #306, #75, #392, .T. ) ;
#282 = EDGE_CURVE ( 'NONE', #238, #316, #326, .T. ) ;
#283 = EDGE_LOOP ( 'NONE', ( #349, #128, #93, #266 ) ) ;
#284 = DIRECTION ( 'NONE',  ( -1.000000000000000000, 0.000000000000000000, 0.000000000000000000 ) ) ;
#285 = EDGE_CURVE ( 'NONE', #271, #18, #237, .T. ) ;
#286 = ADVANCED_FACE ( 'NONE', ( #330 ), #41, .T. ) ;
#287 = PERSON_AND_ORGANIZATION_ROLE ( 'design_supplier' ) ;
#288 = CARTESIAN_POINT ( 'NONE',  ( 0.000000000000000000, 0.000000000000000000, 18.44743199999999916 ) ) ;
#289 = PERSON_AND_ORGANIZATION_ROLE ( 'classification_officer' ) ;
#290 = DIRECTION ( 'NONE',  ( 1.000000000000000000, 0.000000000000000000, 0.000000000000000000 ) ) ;
#291 = CALENDAR_DATE ( 2021, 25, 10 ) ;
#292 = CIRCLE ( 'NONE', #113, 5.000000000000000000 ) ;
#293 = PRODUCT_DEFINITION_SHAPE ( 'NONE', 'NONE',  #356 ) ;
#294 = CARTESIAN_POINT ( 'NONE',  ( -3.927222999999999686, 0.000000000000000000, 18.44743199999999916 ) ) ;
#295 = CARTESIAN_POINT ( 'NONE',  ( -5.000000000000000000, 0.000000000000000000, 15.50000000000000000 ) ) ;
#296 = APPROVAL ( #3, 'UNSPECIFIED' ) ;
#297 = CARTESIAN_POINT ( 'NONE',  ( 1.500000000000000000, 0.000000000000000000, 23.00000001600000132 ) ) ;
#298 = CC_DESIGN_PERSON_AND_ORGANIZATION_ASSIGNMENT ( #323, #167, ( #105 ) ) ;
#299 = FACE_OUTER_BOUND ( 'NONE', #231, .T. ) ;
#300 = AXIS2_PLACEMENT_3D ( 'NONE', #343, #339, #29 ) ;
#301 = VECTOR ( 'NONE', #120, 1000.000000000000000 ) ;
#302 = CARTESIAN_POINT ( 'NONE',  ( 0.000000000000000000, 0.000000000000000000, 17.00000001599999777 ) ) ;
#303 = VERTEX_POINT ( 'NONE', #104 ) ;
#304 = CARTESIAN_POINT ( 'NONE',  ( 0.000000000000000000, 0.000000000000000000, 23.00000001520355042 ) ) ;
#305 = CARTESIAN_POINT ( 'NONE',  ( 2.500000049155254978, 3.935539067555454475E-16, 23.00000001520355042 ) ) ;
#306 = VERTEX_POINT ( 'NONE', #228 ) ;
#307 = CARTESIAN_POINT ( 'NONE',  ( 0.000000000000000000, 0.000000000000000000, 1.000000000000000000 ) ) ;
#308 = EDGE_CURVE ( 'NONE', #303, #246, #364, .T. ) ;
#309 = DIRECTION ( 'NONE',  ( -1.000000000000000000, 0.000000000000000000, 0.000000000000000000 ) ) ;
#310 = EDGE_LOOP ( 'NONE', ( #182, #321 ) ) ;
#311 = CARTESIAN_POINT ( 'NONE',  ( 5.000000000000000000, 6.123233995736766282E-16, 15.50000000000000000 ) ) ;
#312 = ORIENTED_EDGE ( 'NONE', *, *, #125, .F. ) ;
#313 = EDGE_LOOP ( 'NONE', ( #204, #372 ) ) ;
#314 = EDGE_CURVE ( 'NONE', #316, #246, #44, .T. ) ;
#315 = CARTESIAN_POINT ( 'NONE',  ( 0.000000000000000000, 0.000000000000000000, 20.49999992655344982 ) ) ;
#316 = VERTEX_POINT ( 'NONE', #66 ) ;
#317 = EDGE_CURVE ( 'NONE', #211, #342, #205, .T. ) ;
#318 = AXIS2_PLACEMENT_3D ( 'NONE', #2, #4, #174 ) ;
#319 = FACE_OUTER_BOUND ( 'NONE', #269, .T. ) ;
#320 = DIRECTION ( 'NONE',  ( -0.000000000000000000, -0.000000000000000000, 1.000000000000000000 ) ) ;
#321 = ORIENTED_EDGE ( 'NONE', *, *, #226, .F. ) ;
#322 = FACE_OUTER_BOUND ( 'NONE', #324, .T. ) ;
#323 = PERSON_AND_ORGANIZATION ( #19, #358 ) ;
#324 = EDGE_LOOP ( 'NONE', ( #345, #16, #23, #158 ) ) ;
#325 = PRODUCT_DEFINITION_FORMATION_WITH_SPECIFIED_SOURCE ( 'ANY', '', #105, .NOT_KNOWN. ) ;
#326 = LINE ( 'NONE', #36, #360 ) ;
#327 = VECTOR ( 'NONE', #37, 1000.000000000000000 ) ;
#328 = AXIS2_PLACEMENT_3D ( 'NONE', #140, #257, #387 ) ;
#329 = APPROVAL_DATE_TIME ( #218, #223 ) ;
#330 = FACE_OUTER_BOUND ( 'NONE', #313, .T. ) ;
#331 = APPROVAL_STATUS ( 'not_yet_approved' ) ;
#332 = EDGE_LOOP ( 'NONE', ( #402, #252, #166, #203 ) ) ;
#333 = AXIS2_PLACEMENT_3D ( 'NONE', #141, #259, #45 ) ;
#334 = CARTESIAN_POINT ( 'NONE',  ( -2.500000050999999779, 0.000000000000000000, 20.49999992655344982 ) ) ;
#335 = ORIENTED_EDGE ( 'NONE', *, *, #11, .F. ) ;
#336 = APPROVAL_PERSON_ORGANIZATION ( #126, #296, #92 ) ;
#337 =( GEOMETRIC_REPRESENTATION_CONTEXT ( 3 ) GLOBAL_UNCERTAINTY_ASSIGNED_CONTEXT ( ( #338 ) ) GLOBAL_UNIT_ASSIGNED_CONTEXT ( ( #54, #79, #371 ) ) REPRESENTATION_CONTEXT ( 'NONE', 'WORKASPACE' ) );
#338 = UNCERTAINTY_MEASURE_WITH_UNIT (LENGTH_MEASURE( 1.000000000000000082E-05 ), #54, 'distance_accuracy_value', 'NONE');
#339 = DIRECTION ( 'NONE',  ( 0.000000000000000000, 0.000000000000000000, 1.000000000000000000 ) ) ;
#340 = EDGE_CURVE ( 'NONE', #77, #316, #111, .T. ) ;
#341 = DIRECTION ( 'NONE',  ( 1.000000000000000000, 0.000000000000000000, 0.000000000000000000 ) ) ;
#342 = VERTEX_POINT ( 'NONE', #305 ) ;
#343 = CARTESIAN_POINT ( 'NONE',  ( 0.000000000000000000, 0.000000000000000000, 17.00000001599999777 ) ) ;
#344 = DIRECTION ( 'NONE',  ( 1.000000000000000000, 0.000000000000000000, 0.000000000000000000 ) ) ;
#345 = ORIENTED_EDGE ( 'NONE', *, *, #355, .F. ) ;
#346 = DIRECTION ( 'NONE',  ( 0.000000000000000000, 0.000000000000000000, -1.000000000000000000 ) ) ;
#347 = MANIFOLD_SOLID_BREP ( 'Imported1', #378 ) ;
#348 = ORIENTED_EDGE ( 'NONE', *, *, #317, .T. ) ;
#349 = ORIENTED_EDGE ( 'NONE', *, *, #382, .F. ) ;
#350 = CALENDAR_DATE ( 2021, 25, 10 ) ;
#351 = AXIS2_PLACEMENT_3D ( 'NONE', #277, #162, #284 ) ;
#352 = APPLICATION_CONTEXT ( 'configuration controlled 3d designs of mechanical parts and assemblies' ) ;
#353 = AXIS2_PLACEMENT_3D ( 'NONE', #366, #43, #389 ) ;
#354 = APPROVAL_DATE_TIME ( #221, #296 ) ;
#355 = EDGE_CURVE ( 'NONE', #342, #18, #82, .T. ) ;
#356 = PRODUCT_DEFINITION ( 'UNKNOWN', '', #325, #178 ) ;
#357 = DATE_TIME_ROLE ( 'classification_date' ) ;
#358 = ORGANIZATION ( 'UNSPECIFIED', 'UNSPECIFIED', '' ) ;
#359 = CARTESIAN_POINT ( 'NONE',  ( 4.422649999999999970, 0.000000000000000000, 0.000000000000000000 ) ) ;
#360 = VECTOR ( 'NONE', #254, 1000.000000000000000 ) ;
#361 = ADVANCED_FACE ( 'NONE', ( #396 ), #156, .T. ) ;
#362 = CARTESIAN_POINT ( 'NONE',  ( 0.000000000000000000, 0.000000000000000000, 17.00000001599999777 ) ) ;
#363 = DIRECTION ( 'NONE',  ( 0.000000000000000000, 0.000000000000000000, 1.000000000000000000 ) ) ;
#364 = LINE ( 'NONE', #295, #230 ) ;
#365 = ORIENTED_EDGE ( 'NONE', *, *, #15, .F. ) ;
#366 = CARTESIAN_POINT ( 'NONE',  ( 0.000000000000000000, 0.000000000000000000, 17.00000001599999777 ) ) ;
#367 = ORIENTED_EDGE ( 'NONE', *, *, #314, .F. ) ;
#368 = ORIENTED_EDGE ( 'NONE', *, *, #282, .T. ) ;
#369 = ADVANCED_FACE ( 'NONE', ( #47 ), #385, .T. ) ;
#370 = DIRECTION ( 'NONE',  ( 0.000000000000000000, 0.000000000000000000, 1.000000000000000000 ) ) ;
#371 =( NAMED_UNIT ( * ) SI_UNIT ( $, .STERADIAN. ) SOLID_ANGLE_UNIT ( ) );
#372 = ORIENTED_EDGE ( 'NONE', *, *, #382, .T. ) ;
#373 = DIRECTION ( 'NONE',  ( -1.224646799147353207E-16, 1.000000000000000000, 0.000000000000000000 ) ) ;
#374 = LOCAL_TIME ( 9, 28, 29.00000000000000000, #248 ) ;
#375 = AXIS2_PLACEMENT_3D ( 'NONE', #302, #73, #148 ) ;
#376 = CARTESIAN_POINT ( 'NONE',  ( -4.475721799999999639, -4.491122622000000675, 0.000000000000000000 ) ) ;
#377 = APPROVAL_ROLE ( '' ) ;
#378 = CLOSED_SHELL ( 'NONE', ( #143, #369, #390, #361, #49, #17, #286, #209, #169, #87, #180, #46, #155 ) ) ;
#379 = CARTESIAN_POINT ( 'NONE',  ( 1.500000000000000000, 0.000000000000000000, 17.00000001599999777 ) ) ;
#380 = CALENDAR_DATE ( 2021, 25, 10 ) ;
#381 = COORDINATED_UNIVERSAL_TIME_OFFSET ( 9, 0, .AHEAD. ) ;
#382 = EDGE_CURVE ( 'NONE', #75, #306, #62, .T. ) ;
#383 = CARTESIAN_POINT ( 'NONE',  ( -1.500000000000000000, 1.836970198721029934E-16, 17.00000001599999777 ) ) ;
#384 = TOROIDAL_SURFACE ( 'NONE', #65, 2.500000050999999779, 2.500000088650095265 ) ;
#385 = TOROIDAL_SURFACE ( 'NONE', #40, 2.500000050999999779, 2.500000088650095265 ) ;
#386 = DIRECTION ( 'NONE',  ( 0.000000000000000000, 0.000000000000000000, 1.000000000000000000 ) ) ;
#387 = DIRECTION ( 'NONE',  ( -1.000000000000000000, 0.000000000000000000, 0.000000000000000000 ) ) ;
#388 = CC_DESIGN_DATE_AND_TIME_ASSIGNMENT ( #129, #60, ( #356 ) ) ;
#389 = DIRECTION ( 'NONE',  ( 1.000000000000000000, 0.000000000000000000, 0.000000000000000000 ) ) ;
#390 = ADVANCED_FACE ( 'NONE', ( #152 ), #138, .T. ) ;
#391 = ORIENTED_EDGE ( 'NONE', *, *, #191, .T. ) ;
#392 = CIRCLE ( 'NONE', #147, 1.500000000000000000 ) ;
#393 = VECTOR ( 'NONE', #67, 1000.000000000000000 ) ;
#394 = EDGE_LOOP ( 'NONE', ( #112, #398, #222, #312 ) ) ;
#395 = EDGE_CURVE ( 'NONE', #18, #238, #24, .T. ) ;
#396 = FACE_OUTER_BOUND ( 'NONE', #276, .T. ) ;
#397 = EDGE_CURVE ( 'NONE', #246, #316, #292, .T. ) ;
#398 = ORIENTED_EDGE ( 'NONE', *, *, #395, .T. ) ;
#399 = LINE ( 'NONE', #379, #301 ) ;
#400 = DIRECTION ( 'NONE',  ( -1.000000000000000000, 0.000000000000000000, 0.000000000000000000 ) ) ;
#401 = PLANE ( 'NONE',  #268 ) ;
#402 = ORIENTED_EDGE ( 'NONE', *, *, #395, .F. ) ;
#403 = DIRECTION ( 'NONE',  ( -1.000000000000000000, 0.000000000000000000, 0.000000000000000000 ) ) ;
#404 = PERSON_AND_ORGANIZATION ( #19, #358 ) ;
#405 = CC_DESIGN_PERSON_AND_ORGANIZATION_ASSIGNMENT ( #38, #287, ( #325 ) ) ;
#406 = COORDINATED_UNIVERSAL_TIME_OFFSET ( 9, 0, .AHEAD. ) ;
#407 = PLANE ( 'NONE',  #229 ) ;
ENDSEC;
END-ISO-10303-21;
